Song name
# A B C D E F G H I J K L M N O P Q R S T U V W X Y Z

Wavorly - Madmen tab

Song:Madmen
Artist: Wavorly
Tabbed by: guitarsorgirls

~ = vibrato
* = Palm muted
x = Scratch
p = pull off
h = hammer on



E----------------------|--------------------|--------------------|
B----------------------|--------------------|--------------------|
G----------------------|--------------------|--------------------|
D-6-6--6-6--6-6--6-6--2|--------------------|--------------------|
A-6-6--6-6--6-6--6-6--2|-----7-----7-----7--|-9-6h7------6-----6-|
D-6-6--6-6--6-6--6-6--2|-6-6---6-6---6-6----|--------6-6---6-6---|

E-------------------|-------------------|-------------------------------|
B-------------------|-------------------|-------------------------------|
G-------------------|-------------------|-------------------------------|
D-------------------|-------------------|--------------2-2--2-2--1-1----|
A-----6-7-6h7-----4-|-----4-----4-----4-|-----3-----3--2-2--2-2--1-1----|
D-6-6---------6-6---|-6-6---6-6---6-6---|-6-6---6-6----2-2--2-2--1-1----|







Tap to rate this tab
# A B C D E F G H I J K L M N O P Q R S T U V W X Y Z