Song name
# A B C D E F G H I J K L M N O P Q R S T U V W X Y Z

Wax - My Future Is A Big Wide Open Space tab

Artist: Wax
Song: My Future is a big wide open space
Album: Eviction Notice



hey, here you can watch wax plaing this tune live if you are confused by this tab: 
http://www.youtube.com/watch?v=v5Yd-1Hq5-s

its basically one riff the whole song through consisting of simple jazz-chords



Intro

    Amaj7      Bbm7 Bm7              Dmaj7      C#m7 Bm7  Amaj7      E7
e|-----------------------------------------------------------------------|
B|----5--5---5--------7--7----7--7------10--10----9----7----5--5--5--9---|
G|----6--6---6---6----7--7----7--7------11--11----9----7----6--6--6--7---|
D|----6--6---6---6----7--7----7--7------11--11----9----7----6--6--6--9---|
A|-------------------------------------------------------------------7---|
E|--5------5---6----7-------7--------10---------9----7----5------5---0---|




Chorus:

    Amaj7      Bbm7 Bm7              Dmaj7      C#m7 Bm7  Amaj7
e|----------------------------------------------------------------------|
B|----5--5---5--------7--7----7--7------10--10----9----7----5--5--5--5--|
G|----6--6---6---6----7--7----7--7------11--11----9----7----6--6--6--6--|
D|----6--6---6---6----7--7----7--7------11--11----9----7----6--6--6--6--|
A|----------------------------------------------------------------------|
E|--5------5---6----7-------7--------10---------9----7----5------5------|

My future is a big wide open space, got plenty of time and no place




    Amaj7      Bbm7 Bm7              Dmaj7      C#m7 Bm7  Amaj7      E7
e|-----------------------------------------------------------------------|
B|----5--5---5--------7--7----7--7------10--10----9----7----5--5--5--9---|
G|----6--6---6---6----7--7----7--7------11--11----9----7----6--6--6--7---|
D|----6--6---6---6----7--7----7--7------11--11----9----7----6--6--6--9---|
A|-------------------------------------------------------------------7---|
E|--5------5---6----7-------7--------10---------9----7----5------5---0---|

My future is a big wide open space and if I die there's no waste





Verse 1:


    Amaj7      Bbm7 Bm7              Dmaj7      C#m7 Bm7  Amaj7
e|----------------------------------------------------------------------|
B|----5--5---5--------7--7----7--7------10--10----9----7----5--5--5--5--|
G|----6--6---6---6----7--7----7--7------11--11----9----7----6--6--6--6--|
D|----6--6---6---6----7--7----7--7------11--11----9----7----6--6--6--6--|
A|----------------------------------------------------------------------|
E|--5------5---6----7-------7--------10---------9----7----5------5------|

Ain't got no kids, ain't got no girl, can do whatever I want in the world



    Amaj7      Bbm7 Bm7              Dmaj7      C#m7 Bm7  Amaj7      E7
e|-----------------------------------------------------------------------|
B|----5--5---5--------7--7----7--7------10--10----9----7----5--5--5--9---|
G|----6--6---6---6----7--7----7--7------11--11----9----7----6--6--6--7---|
D|----6--6---6---6----7--7----7--7------11--11----9----7----6--6--6--9---|
A|-------------------------------------------------------------------7---|
E|--5------5---6----7-------7--------10---------9----7----5------5---0---|

Ain't got no job that I can't quit, I ain't got shit and I kind of like it





Chorus:

Cause my future is a big wide open space
Got plenty of time and no place
My future is a big wide open space
Yeaah
And if I die there's no waste




Verse 2:

Ain't got no money, ain't got no house
I ain't got nothin' to worry about
If you stole all my money from my bank
Yeaah, Then you'd owe them, so you I thank



Chorus:

My future is a big wide open space
Got plenty of time and no place
My future is a big wide open space
Yeaah
And if I die there's no waste





Bridge:


    Amaj7      Bbm7 Bm7              Dmaj7      C#m7 Bm7  Amaj7
e|----------------------------------------------------------------------|
B|----5--5---5--------7--7----7--7------10--10----9----7----5--5--5--5--|
G|----6--6---6---6----7--7----7--7------11--11----9----7----6--6--6--6--|
D|----6--6---6---6----7--7----7--7------11--11----9----7----6--6--6--6--|
A|----------------------------------------------------------------------|
E|--5------5---6----7-------7--------10---------9----7----5------5------|

I don't think about the money and the power
I know I'll never get 20 in an hour
I try not to worry and scour
I stop and I smell the proverbial flowers

    Amaj7      Bbm7 Bm7              Dmaj7      C#m7 Bm7  Amaj7      E7
e|-----------------------------------------------------------------------|
B|----5--5---5--------7--7----7--7------10--10----9----7----5--5--5--9---|
G|----6--6---6---6----7--7----7--7------11--11----9----7----6--6--6--7---|
D|----6--6---6---6----7--7----7--7------11--11----9----7----6--6--6--9---|
A|-------------------------------------------------------------------7---|
E|--5------5---6----7-------7--------10---------9----7----5------5---0---|


Its no strife, no stressing
Cause its a fact that my life is a blessing
So I treat it like I'm cooking a pie
I see the future when I look in the sky
I say that because...




Chorus:

My future is a big wide open space
Got plenty of time and no place
My future is a big wide open space
Yeaah
And if I die there's no waste



My future is a big wide open space (its wide open y'all, c'mon)
Got plenty of time and no place (I ain't got no place to be)
My future is a big wide open space
Yeaah
And if I die there's no waste
Tap to rate this tab
# A B C D E F G H I J K L M N O P Q R S T U V W X Y Z