Guitaretab - guitar tabs
Song name
# A B C D E F G H I J K L M N O P Q R S T U V W X Y Z

We Are Scientists - Cash Cow tab

Cash cow  We are scientists

Intro:
E|-33-5555-3333-55-33-3---------|
B|-55-5555-5555-55-55-5---------|
G|-44-4444-4444-44-44-4---------|
D|------------------------------|
A|------------------------------|
E|------------------------------|

Verse riff:
E|---------------------------------------------------|
B|-88-77------------88-77----------7----7----7----7--|
G|-------99-77------------99-77-9b---9b---9b---9b----|
D|-------------9~------------------------------------|
A|---------------------------------------------------|
E|---------------------------------------------------| 2x

Then intro played in verse
[ Tab from: http://www.guitaretab.com/w/we-are-scientists/66395.html ]
Chorus:
E|-----------|   |------------------------------------------|
B|-----------|   |------------------------------------------|
G|-9999-7777-|   |-121212121212-1414-1111111111111111-------|
D|-xxxx-xxxx-|   |--x-x-x-x-x-x--x-x--x-x-x-x-x-x-x-x-------|
A|-7777-5555-|   |-101010101010-1212--9-9-9-9-9-9-9-9-------|
E|-----------|x6 |------------------------------------------|

2nd verse (quiet)

E|----------33------|
B|-55-33-55-55------|
G|----------44------|
D|------------------|
A|------------------|
E|------------------| x8

Verse riff

Chorus

Brigde:
E|-------------------------------------------------------|
B|-------------------------------------------------------|
G|--99-xx-99-xx-99-xx-99-xx-99-xx-99-xx-99-xx-99---------|
D|--xx-xx-xx-xx-xx-xx-xx-xx-xx-xx-xx-xx-xx-xx-xx---------|
A|--77-xx-77-xx-77-xx-77-xx-77-xx-77-xx-77-xx-77---------|
E|--00-xx-00-xx-00-xx-00-xx-00-xx-00-xx-00-xx-00---------|

E|----------------------------|     |-------------22-22-22---|
B|------------------------3---|     |-------------33-33-33---|
G|-------22-44-------22-4-----|     |-------22-44-22-22-22---|
D|-22-55-------22-55----------|     |-22-55------------------|
A|----------------------------|     |------------------------|
E|----------------------------| 3x  |------------------------|

And then back to chorus
End
Related for Cash Cow tab