Song name
# A B C D E F G H I J K L M N O P Q R S T U V W X Y Z

We Are The In Crowd - Come Back Home tab

--------------------------------------------------------------------------
                 We Are The In Crowd - Come Back Home
--------------------------------------------------------------------------
Tabbed by: Karla Dulay
E-mail: karladulay@gmail.com

Tuning: Standard

Guitar 1:
Intro
e|-----0-----0----0--------0----0-------0----0-------0----0---|
B|-----0-----0----0--------0----0-------0----0-------0----0---|
G|-----1-----2----1--------2----6-------2----1-------2----1---| 
D|-----2-----2----2--------2----6-------2----2-------2----2---|
A|-----2-----0----2--------0----4-------0----2-------0----2---|
E|-----0----------0--------------------------0------------0---|

Verse
e|-----0-----0----0--------0----0-------0----0-------0----0---|
B|-----0-----0----0--------0----0-------0----0-------0----0---|
G|-----1-----2----1--------2----6-------2----1-------2----1---|  2x
D|-----2-----2----2--------2----6-------2----2-------2----2---|
A|-----2-----0----2--------0----4-------0----2-------0----2---|
E|-----0----------0--------------------------0------------0---|

Prechorus/Chorus
e|-----0------0------0------0------|
B|-----0------0------0------0------|
G|-----2------1------6------4------|  4x
D|-----2------2------6------4------|
A|-----0------2------4------2------|
E|------------0--------------------|

Then Play Verse, Prechorus, and Chorus again


Bridge
e|-----2------0------0------0-----------|
B|-----2------0------0------0-----------|
G|-----2------2------6------4-----------|  2x
D|-----4------2------6------4-----------|
A|-----4------0------4------2-----------|
E|-----2--------------------------------|


Play Chorus again
Outro is same as Chorus


Guitar 2: 
Intro
e|--14h16p14-------14h16p14---------14----14h16p14-------14h16p14--------18-|
B|------------14-------------14---14-----------------14-----------14---14---|
G|------------------------------15-----------------------------------15-----|
D|--------------------------------------------------------------------------|
A|--------------------------------------------------------------------------|
E|--------------------------------------------------------------------------|

e|--12h14p12------12h14p12----------12----12h14p12------12h14p12------------|
B|------------12-------------12---12----------------12-----------12---------|
G|------------------------------13----------------------------------13-13---|
D|------------------------------------------------------------------14-14---|
A|--------------------------------------------------------------------------|
E|--------------------------------------------------------------------------|


Verse 1
"But I think you know what you mean to me..."
e|---------------------------|
B|---------9~-----10p9-------|
G|---9------------------9----|
D|------9--------------------|
A|---------------------------|
E|---------------------------|

"Things'll never be the way they were before..."
e|-------------------|
B|-------10---9------|
G|--9-----------9----|
D|-----9-------------| 
A|-------------------|
E|-------------------|

"I guess you can't count on anything..."
e|---------------------------|
B|---------9~----10p9--------|
G|---9------------------9----|
D|------9--------------------|
A|---------------------------|
E|---------------------------|

Prechorus/Chorus(Can barely hear it but I think this sounds right)
e|---------7------|---------7-------|--------7-------|---------7--------|
B|--10------------|--9--------------|--9-------------|---7--------------|
G|------9----9----|------9----9-----|------9-----9---|------8-----8-----| 2x
D|----------------|-----------------|----------------|------------------|
A|----------------|-----------------|----------------|------------------|
E|----------------|-----------------|----------------|------------------|

e|--------------------------------------|
B|----10----9-----9-----7---------------|
G|----9-----9-----9-----9---------------|
D|--------------------------------------| 2x
A|--------------------------------------|
E|--------------------------------------|

Verse 2
e|-----0-----0----0--------0----0-------0----0-------0----0---|
B|-----0-----0----0--------0----0-------0----0-------0----0---|
G|-----1-----2----1--------2----6-------2----1-------2----1---|  2x
D|-----2-----2----2--------2----6-------2----2-------2----2---|
A|-----2-----0----2--------0----4-------0----2-------0----2---|
E|-----0----------0--------------------------0------------0---|


Then play Prechorus and Chorus again


Bridge (Again not sure if this is 100% correct cause its hard to hear)
e|--12--------------|----12-----------|--12------------|-11------11------|
B|-----12-----------|-------12--------|-----12---------|----12-------12--|
G|--------14-13-14--|--14------13-14--|-------14-13-14-|-------13--------|
D|------------------|-----------------|----------------|-----------------|
A|------------------|-----------------|----------------|-----------------|
E|------------------|-----------------|----------------|-----------------|  

e|--12---------------|--12--|--12--------------|--11------14-------------|
B|--12--12-----------|--12--|--12--12----------|-----12---12--12~--------|
G|---------14-13-13--|------|---------14-13-14-|-------------------------|
D|-------------------|------|------------------|-------------------------|
A|-------------------|------|------------------|-------------------------|
E|-------------------|------|------------------|-------------------------|

Play Chorus again


************************************

| /   slide up
| \   slide down
| h   hammer-on
| p   pull-off
| ~   vibrato
| +   harmonic
| x   Mute note
| b   Bend
| pb  Pre-bend
| br  Bend release
| pbr Pre-bend release
| brb Bend release bend

************************************
Tap to rate this tab
# A B C D E F G H I J K L M N O P Q R S T U V W X Y Z