Song name
# A B C D E F G H I J K L M N O P Q R S T U V W X Y Z

We Came As Romans - Dreams tab

We Came As Romans - Dreams

Drop D tuning DADGBe


this is my first tab so it's probably nowhere near perfect.

i mixed guitar 1 and 2 to make a superior tab.
couldn't get a few parts


E|-------------------------------------------------------------------------|
B|-------------------------------------------------------------------------|
G|-------------------------------------------------------------------------|
D|0-----------------------------------11-----------------7-----------------|
A|0-----------------------------------11-----------------7-----------------|
D|0-----------------------------------11-----------------7-----------------|
  .

                                                                         x3
E|-------------------------------------------------------------------------|
B|-------------------------------------------------------------------------|
G|-------------------------------------------------------------------------|
D|0-0-0-0-0-0-0-0-0-0-0-0-0-0-0-0-11-11-11-11-11-11-11-11-7-7-7-7-7-7-7-7--|
A|0-0-0-0-0-0-0-0-0-0-0-0-0-0-0-0-11-11-11-11-11-11-11-11-7-7-7-7-7-7-7-7--|
D|0-0-0-0-0-0-0-0-0-0-0-0-0-0-0-0-11-11-11-11-11-11-11-11-7-7-7-7-7-7-7-7--|
  . . . . . . . . . . . . . . . .

                                                             x2
E|--------------------------------------------------------------|
B|--------------------------------------------------------------|
G|--------------------------------------------------------------|
D|00000-000----00000--00000--1111111111-111111----77777--77777--|
A|00000-000----00000--00000--1111111111-111111----77777--77777--|
D|00000-000----00000--00000--1111111111-111111----77777--77777--|
  ..... ...    .....  .....


E|-------------------------------------------------|
B|-------------------------------------------------|
G|------------15-14----------------15-14-----------|
D|12-15-------------14-15-12-------------15-14-15--|
A|------12-13----------------12-13-----------------| \
D|-------------------------------------------------|  \
                                                       \
                                                        x2
                                                        /
E|------------18-17----------------18-17-----------|  -- /
B|15-18-------------17-18-15-------------18-17-18--| --- /
G|------14-15----------------14-15-----------------|---- /
D|------------------------------------------------------ /
A|------------------------------------------------------ /
D|------------------------------------------------------ /

E|--------------------------------------------------|
B|--------------------------------------------------|
G|--------------------------------------------------|
D|00000------00000----000--00000------00000----000--|
A|00000------00000----000--00000------00000----000--|
D|00000------00000----000--00000------00000----000--|
  .....      .....    ...  .....      .....    ...

                                                          x4
E|---------------------------------------------------------|
B|---------------------------------------------------------|
G|------------15-14---------------------------15-14--------|
D|0-------000-------14-15-0-------0-------000-------14-15--|
A|0-12-13-000-------------0-12-13-0-12-13-000--------------|
D|0-------000-------------0-------0-------000--------------|
  .       ...             .       .       ...

                                         x3   ??
E|---------------------------------|-------|-------|
B|---------------------------------|-------|-------|
G|----------15-14------------------|-------|--^----|
D|0-0-0-000-------14-15-0000-12-15-|-------|-17\\--|
A|0-0-0-000-------------0000-------|-12-13-|-------|
D|0-0-0-000-------------0000-------|-------|-------|
  . . . ...             ....


E|-------------------------------------------------------------------------|
B|-------------------------------------------------------------------------|
G|------------------------------------------------------let ring-----------|
D|0-0-0-000---00000--00000--0-0-0-000---00000--00000-0~~~~~~~~~~~~~~~~~~~~~|
A|0-0-0-000---00000--00000--0-0-0-000---00000--00000-0~~~~~~~~~~~~~~~~~~~~~|
D|0-0-0-000---00000--00000--0-0-0-000---00000--00000-0~~~~~~~~~~~~~~~~~~~~~|
  . . . ...   .....  .....  . . . ...   .....  .....

                                  x3
E|---------------------------------|
B|---------------------------------|
G|---------------------------------|
D|0-0-0-0-0-0-0-0-0-0-00000000000--|
A|0-0-0-0-0-0-0-0-0-0-00000000000--|
D|0-0-0-0-0-0-3-3-3-3-54345434543--|
  . . . . . . . . . . ...........

                          x4
E|-------------------------|
B|-------------------------|
G|-------------------------|
D|00000-000---00000-00000--|
A|00000-000---00000-00000--|
D|00000-000---00000-00000--|
  ..... ...   ..... .....

                                                          x2
E|------|--------------------------------------------------|
B|------|--------------------------------------------------|
G|------|-------------15-14----------------15-14-----------|
D|00-00-|-12-15-------------14-15-12-------------15-14-15--|
A|00-00-|-------12-13----------------12-13-----------------|
D|00-00-|--------------------------------------------------|
  .. ..

                                                                   x4
E|---------------------------------------|------0-------------------|
B|---------------------------------------|------6-------------------|
G|---------------------------------------|------5-------------------|
D|0-------0-------0-10-12--10-12--10-12--|2323----23--2323--23232---|
A|0-12-13-0-12-13-0----------------------|----4------------------4--|
D|0-------0-------0----------------------|--------------------------|
  .       .       .


E|------------------------------------------------------------------|
B|------------------------------------------------------------------|
G|------------------------------------------------------------------|
D|------------------------------------------------------------------|
A|5555555555555555888888888888888833333333555555551111111111110000--|
D|------------------------------------------------------------------|

E|----------------------------------------------------------|
B|----------------------------------------------------------|
G|----------------------------------------------------------|
D|0-0-0-0-0-0-0-0-8-8-8-8-8-8-7-7-7-7-3----8-8-8-8-8-7-7-7--|
A|0-0-0-0-0-0-0-0-8-8-8-8-8-8-7-7-7-7-3----8-8-8-8-8-7-7-7--|
D|0-0-0-0-0-0-0-0-8-8-8-8-8-8-7-7-7-7-3----8-8-8-8-8-7-7-7--|
  . . . . . . . . . . . . . . . . . .

                                                 x4
E|------------------------------------------------|
B|------------------------------------------------|
G|------------15-14---------------15-14-----------|
D|12-15-------------14-15-12------------15-14-15--|
A|------12-14----------------12-14----------------|
D|------------------------------------------------|


                          x4
E|-------------------------|
B|-------------------------|
G|-------------------------|
D|00000-000---00000-00000--|
A|00000-000---00000-00000--|
D|00000-000---00000-00000--|
  ..... ...   ..... .....

                                                               x2
E|--------------------------------------------------------------|
B|--------------------------------------------------------------|
G|--------------------------------------------------------------|
D|00000-000----00000--00000--1111111111-111111----77777--77777--|
A|00000-000----00000--00000--1111111111-111111----77777--77777--|
D|00000-000----00000--00000--1111111111-111111----77777--77777--|
  ..... ...    .....  .....


http://www.myspace.com/wecameasromans (signed by equal vision records)
Tap to rate this tab
# A B C D E F G H I J K L M N O P Q R S T U V W X Y Z