Song name
# A B C D E F G H I J K L M N O P Q R S T U V W X Y Z

We Came As Romans - Hope tab

Intro to Hope  We Came As Romans

Tuning is in Bb.

Intro riff.
(If this confuses you play the song and follow along it's easy once you catch on)

*=palm mute

C : ----------------------------------------------------------------------|
G : ----------------------------------------------------------------------|
Eb: ----------------------------------------------------------------------|
Bb: 2-2--2-2--2-2--2--5-5--5-5--5-5--0-0--0-0--0-0--0-0--0-0--2-2--2-2--2-|
F : 2-2--2-2--2-2--2--5-5--5-5--5-5--0-0--0-0--0-0--0-0--0-0--2-2--2-2--2-|
Bb: 2-2--2-2--2-2--2--5-5--5-5--5-5--0-0--0-0--0-0--0-0--0-0--2-2--2-2--2-|
    * *  * *  * *  *  * *  * *  * *  * *  * *  * *  * *  * *  * *  * *  *

And this goes into the end of the intro riff

C : ---------------------------------------------------------------------|
G : ---------------------------------------------------------------------|
Eb: ---------------------------------------------------------------------|
Bb: ---------------------------------------------------------------------|
F : -3-3-2---------------------------------------------------------------|
Bb: 2-2-2----------------------------------------------------------------|
    * * *
Tap to rate this tab
# A B C D E F G H I J K L M N O P Q R S T U V W X Y Z