We Shot The Moon - Amy tab

We Shot The Moon
Amy
A Silver Lining

Intro:
E---------|
B---------|
G-3~------|
D-3~---5~-|
A-1~---5~-|
E------3~-|

Verse:
E---------------------------------|
B---------------------------------|
G-----------------5-5-5-5---------|
D-5-5-5-5-3-3-3-3-5-5-5-5-5-5-7-7-|
A-5-5-5-5-3-3-3-3-3-3-3-5-5-5-7-7-|
E-3-3-3-3-1-1-1-1---------3-3-5-5-|

Chorus:
E----------------------------------|
B----------------------------------|
G-7777777733333333--------55555555-|
D-77777777333333333333333355555555-|
A-55555555111111113333333333333333-|
E-----------------11111111---------|

Pre-Break is just the intro and then with distortion

Break:
E------------------------------------|
B------------------------------------|
G-7777775~-33333333------2~-5555556~-|
D-7777775~-333333333333332~-5555557~-|
A-5555553~-111111113333330~-3333334~-|
E------------------111111------------|

End On:
E---|
B---|
G-3~|
D-3~|
A-1~|
E---|

Questions?
Email at cory.roesch@yahoo.com
Tap to rate this tab
 
# A B C D E F G H I J K L M N O P Q R S T U V W X Y Z