Song name
# A B C D E F G H I J K L M N O P Q R S T U V W X Y Z

We Were Promised Jetpacks - Its Thunder And Its Lighting tab

Tabbed by Blinkaholic
Tuning: Standard

Artist: We Were Promised Jetpacks
Song: It's Thunder and It's Lighting

E|---------------------------------------------------------------------|
B|---------------------------------------------------------------------|
G|---------------------------------------------------------------------|
D|---0---0---0---0---0---0---0---0---0---0---0---0---0---0---0---0---0-|
A|---------------------------------------------------------------------|
E|-7---7---7---7---5---5---5---5---10---10---10---10---3---3---3---3---|

E|-----------------------------------------------------------------|
B|-----------------------------------------------------------------|
G|-----------------------------------------------------------------|
D|---0---0---0---0---0---0---0---0---0---0---0---0---0---0---0---0-|
A|-----------------------------------------------------------------|
E|-3---3---3---3---5---5---5---5---2---2---2---2---2---2---0---0---|

This riff repeats over and over for about half the song.
Tap to rate this tab
# A B C D E F G H I J K L M N O P Q R S T U V W X Y Z