Song name
# A B C D E F G H I J K L M N O P Q R S T U V W X Y Z

We Were Promised Jetpacks - Human Error tab

We Were Promised Jetpacks//Human Error
Great song and 2nd single from "In The Pit Of The Stomach"
Going by this video: www.youtube.com/watch?v=6CH9MJFveJ4

Tuning: A whole step down, DGCFAD.


Intro/Verse: Alternate Between These Chords.

d|---------------------------|
A|---------------------------|
F|--4-----------------4------| X4 (First 3 Muted)
C|--4-----------------2------|
G|--2------------------------|
D|--------------------4------|


Chorus

d|---------------------------|
A|---4-----2-----0-----2-----|
F|---4-----3-----1-----3-----| 
C|---6-----4-----2-----4-----|
G|---6-----4-----2-----4-----|
D|---------------0-----------|

d|---------------------------|
A|---4-----2-----0-----------|
F|---4-----3-----1-----------| 
C|---6-----4-----2-----------|
G|---6-----4-----2-----------|
D|---------------0-----------|


Verse 2: Alternate Between These Chords.

d|---------------------------|
A|---------------------------|
F|--4-----------------4------| X4 
C|--4-----------------2------|
G|--2------------------------|
D|--------------------4------|


Chorus

d|---------------------------|
A|---4-----2-----0-----2-----|
F|---4-----3-----1-----3-----| x3
C|---6-----4-----2-----4-----|
G|---6-----4-----2-----4-----|
D|---------------0-----------|

d|---------------------------|
A|---4-----2-----0-----------|
F|---4-----3-----1-----------| 
C|---6-----4-----2-----------|
G|---6-----4-----2-----------|
D|---------------0-----------|


Outro

d|------4--------------------|
A|---0--0--2--4--------------|
F|---1--1--1--3--------------| 
C|---2--2--2--4--------------|
G|---2--2--2--4--------------|
D|---0--0--0-----------------|

d|---------------------------|
A|---4-----------------------|
F|---4-----------------------| 
C|---2-----------------------|
G|---0-----------------------|
D|---------------------------|

Lyrics

If I was a writer, I'd write my opinions
And save them for later
Just to see how wrong I could be

If I was a painter, I'd paint all my rainbows
in different colors, or probably just black and grey

If I was a writer, I'd write my opinions
And send them a letter
Just to see they listen to me and I say

Trial and error, I'm not sure I've been here before
I'm drowning in humans, I'm not sure I've been here before

If I was a writer, I'd write my opinions
And save them for later
Just to see how wrong I could be

If I was a painter, I'd paint all my pictures
in different colors, or probably just black and grey

If I was a writer, I'd write my opinions
And send them a letter
Just to see they listen to me and I say

Trial and error, I'm not sure I've been here before
I'm drowning in humans, I'm not sure I've been here before
I'm drowning in humans, And I'm sure I've been here before

So why decide that around there?
Holding your tongue like it was your sword.
Why decide that around there?
Holding your tongue like it was your sword

Lyrics and music by We Were Promised Jetpacks
Tabbed by Goldie.




Tap to rate this tab
# A B C D E F G H I J K L M N O P Q R S T U V W X Y Z