Song name
# A B C D E F G H I J K L M N O P Q R S T U V W X Y Z

Weedeater - Time Served tab

Tabbed by Five

=======================
Weedeater - Time Served
=======================

Tuning is D (DAFCGD)

Slow
D|--------------------------------------|
A|--------------------------------------|
F|--------------------------------------|
C|-------------/9-----------------------|
G|---2----2----/7-------5---------------|
D|---0----0----------0h-3--0-3b--0-3b---|


"Wanted"                             3x Full Speed                         8x
|-------------------------------------||------------------------------------|
|-------------------------------------||------------------------------------|
|-------------------------------------||------------------------------------|
|-----------/9------------------------||-----------/9-----------------------|
|---2---2---/7-------5----------------||---2---2---/7-------5---------------|
|---0---0---------0h-3--0-3b--0-3b----||---0---0---------0h-3--0-3b--0-3b---|


"Wanted for something I didn't do
Goddamn you fucking pig"
|--------------------------------------|
|--------------------------------------|
|--------------------------------------|
|--------------------------------------|
|---7------7--------7\------5------5---|
|---5------5--------5\------3------3---|


"Wanted"                            6x
|------------------------------------|
|------------------------------------|
|------------------------------------|
|-----------/9-----------------------|
|---2---2---/7-------5---------------|
|---0---0---------0h-3--0-3b--0-3b---|


"Wanted for something I didn't do
Goddamn you fucking pig"
|--------------------------------------|
|--------------------------------------|
|--------------------------------------|
|--------------------------------------|
|---7------7--------7\------5------5---|
|---5------5--------5\------3------3---|


                                    2x
|------------------------------------|
|------------------------------------|
|------------------------------------|
|-----------/9-----------------------|
|---2---2---/7-------5---------------|
|---0---0---------0h-3--0-3b--0-3b---|


"Wanted for something I didn't do
Goddamn you fucking pig"
|--------------------------------------|
|--------------------------------------|
|--------------------------------------|
|--------------------------------------|
|---7------7--------7\------5------5---|
|---5------5--------5\------3------3---|


                                    2x
|------------------------------------|
|------------------------------------|
|------------------------------------|
|-----------/9-----------------------|
|---2---2---/7-------5---------------|
|---0---0---------0h-3--0-3b--0-3b---|


"Wanted for something I didn't do
Goddamn you fucking pig"
|--------------------------------------|
|--------------------------------------|
|--------------------------------------|
|--------------------------------------|
|---7------7--------7\------5------5---|
|---5------5--------5\------3------3---|

|-------|
|-------|
|-------|
|-------|
|---2---|
|---0---|


Legend
======
\ ... Slide down
/ ... Slide up
h ... Hammer-On
b ... 1/4 Bend
Tap to rate this tab
# A B C D E F G H I J K L M N O P Q R S T U V W X Y Z