Song name
# A B C D E F G H I J K L M N O P Q R S T U V W X Y Z

Weezer - Undone tab

m: "Matt Shaffer"


Group: Weezer
Song:Undone (The Sweater Song)
Alblum: Weezer
Track:5

Tune guitar down 1/2 step
Clean tone

e--------------------------------------------|
b----------0----------0---------0---------0--|
g-------3-----------3--------5----------3----|(X8)
d-----2----------2---------4----------2------|
a-------------3----------5---------3---------|
E-3------------------------------------------|


Verse Acoustic Gtr.
e-3-3-3-3--0-0-0-0--2-2-2-2--0-0-0-0---|
b-3-3-3-3--1-1-1-1--3-3-3-3--1-1-1-1---|
g-0-0-0-0--0-0-0-0--2-2-2-2--0-0-0-0---|
d-0-0-0-0--2-2-2-2--0-0-0-0--2-2-2-2---|
a-2-2-2-2--3-3-3-3-----------3-3-3-3---|
E-3-3-3-3------------------------------|

Chorus w/dist
e------------------------------------|
b------------------------------------|
g-4-4-4-4-5-5-5-5-7-7-7-7-5-5-5-5----|
d-5-5-5-5-5-5-5-5-7-7-7-7-5-5-5-5----|
a-5-5-5-5-3-3-3-3-5-5-5-5-3-3-3-3----|
E-3-3-3-3-3-3-3-3-5-5-5-5-3-3-3-3----|

Guitar Solo
e---------------------------------------------------------------------|
b--------------------------------------------3-3^--3------------------|
g-3-3-3---3~~3---3-3-3---3~~3---3-3-3---3-5----------5-3\2/3----------|
d-------6------5-------5------5-------5----------------------5-3------|
a---------------------------------------------------------------------|
E---------------------------------------------------------------------|

          *=bend up a whole step
e---------------------------------------------------------------------|
b----------------------------------------6*-6-3-----------------------|
g-------3-3*-------5*5*-5-3-------5*-5-3--------5-3~~3~~3--3/5--------|
d-3-3-5-------5-3------------5-3--------------------------------------|
a---------------------------------------------------------------------|
E---------------------------------------------------------------------|

e-8-8/10-10-10/11-11/13-13/15-15/17-17/18-18/20-20-20-18-17-15-15-13--|
b---------------------------------------------------------------------|
g-5-5/7--7---7/8---8/10-10/12-12/14-14/15-15/17-17-17-15-14-12-12-10--|
d---------------------------------------------------------------------|
a---------------------------------------------------------------------|
E---------------------------------------------------------------------|

e------------------------------------15*~~~--15p13--18*~~~~---18-17---|
b-----15----15----15----15--------------------------------------------|
g-10-----12----------12----12-12-10~~~--------------------------------|
d--------------12-----------------------------------------------------|
a---------------------------------------------------------------------|
E---------------------------------------------------------------------|

e----------------------------------------|
b-15-15~~~~~---13p12---------------------|
g---------------------14p12-14*-12~~~~~--|
d----------------------------------------|
a----------------------------------------|
E----------------------------------------|

Guitar playing behind solo
e-6-6-6-6-6-6--------------------------------|
b-6-6-6-6-6-6--8-8-8-8-8-8-10-10-10-10-10-10-|
g-7-7-7-7-7-7--8-8-8-8-8-8-10-10-10-10-10-10-|
d-8-8-8-8-8-8--8-8-8-8-8-8-10-10-10-10-10-10-|
a-8-8-8-8-8-8--6-6-6-6-6-6--8--8--8--8--8--8-|
E-6-6-6-6-6-6--6-6-6-6-6-6--8--8--8--8--8--8-|

Chorus before outro:
e----------------------------|
b----------------------------|
g-4-4-4-4--7-7-7-7--5-5--8-8-|
d-5-5-5-5--7-7-7-7--5-5--8-8-|
a-5-5-5-5--5-5-5-5--3-3--8-8-|
E-3-3-3-3--5-5-5-5--3-3--6-6-|

Outro:
e---------------------------------------------------------------------|
b---------------------------------------------------------------------|
g-12-12-12-12-12-12-12-12-12-12-11-11-9-9-9\7-------------------------|
d---------------------------------------------------------------------|
a-10-10-10-10-10-10-10-10-10-10--9--9-7-7-7\5-------------------------|
E---------------------------------------------------------------------|

e---------------------------------------------------------------------|
b---------------------------------------------------------------------|
g-7-7-7-7-7/12-12-12-12-12-12-12-12-12-12-11-11-9-9-9\7-7-7-7-7-7-----|
d---------------------------------------------------------------------|
a-5-5-5-5-5/10-10-10-10-10-10-10-10-10-10--9--9-7-7-7\5-5-5-5-5-5-----|
E---------------------------------------------------------------------|

e----------------------------------------------------------------------|
b----------------------------------------------------------------------|
g-7-7-7/19-19-19-19-19-17-17-16-16-16-17\14-14-16\12-12-12-12-12-12-12-|
d----------------------------------------------------------------------|
a-5-5-5/17-17-17-17-17-17-17-14-14-14-15\12-12-14\10-10-10-10-10-10-10-|
E----------------------------------------------------------------------|

e---------------------------------------------------------------------|
b---------------------------------------------------------------------|
g-12-14-14-14-14-14-14-14-14-15-15-15-15-15-15-15-15------------------|
d---------------------------------------------------------------------|
a-10-12-12-12-12-12-12-12-12-13-13-13-13-13-13-13-13------------------|
E---------------------------------------------------------------------|

e-/18-18-18-18-18-18-18-18-18-18-18-18-18-18-18-18-18/20--------------|
b---------------------------------------------------------------------|
g-/15-15-15-15-15-15-15-15-15-15-15-15-15-15-15-15-15/17--------------|
d---------------------------------------------------------------------|
a---------------------------------------------------------------------|
E---------------------------------------------------------------------|

e-20-20-20-20-20-20-20-20-18-18-18-18-18-18-18-18-18-18-18-18-18-18-18-|
b----------------------------------------------------------------------|
g-17-17-17-17-17-17-17-17-15-15-15-15-15-15-15-15-15-15-15-15-15-15-15-|
d----------------------------------------------------------------------|
a----------------------------------------------------------------------|
E----------------------------------------------------------------------|


e-18-18-18-18-18-18-18-18-20-20-20-20-20-20-20-20-20-20-20^-20^-20^-|
b-------------------------------------------------------------------|
g-15-15-15-15-15-15-15-15-17-17-17-17-17-17-17-17-17-17-17^-17^-17^-|
d-------------------------------------------------------------------|
a-------------------------------------------------------------------|
E-------------------------------------------------------------------|

 when bendinh up bend a whole step up
e-20^-20^-20^-20^-20^-20^-20^-20^-20^-20^-20^-20^-20^-20^-20^-20^-20-|
b--------------------------------------------------------------------|
g-17^-17^-17^-17^-17^-17^-17^-17^-17^-17^-17^-17^-17^-17^-17^-17^-17-|
d--------------------------------------------------------------------|
a--------------------------------------------------------------------|
E--------------------------------------------------------------------|

e-20^-20^-20^-20^-20^-20^-20^-20^-19^-19^-19^-19^-19^-19^-19^-19^---|
b-------------------------------------------------------------------|
g-17^-17^-17^-17^-17^-17^-17^-17^-----------------------------------|
d-------------------------------------------------------------------|
a-------------------------------------------------------------------|
E-------------------------------------------------------------------|

e-19^-19^-19^-19^-19^-19^-19^-19^-19^-19^-19^-19^-19^-19^-19^-19^---|
b-------------------------------------------------------------------|
g-------------------------------------------------------------------|
d-------------------------------------------------------------------|
a-------------------------------------------------------------------|
E-------------------------------------------------------------------|

e-19^-19^-19^-19^-19^-19^-19^-19^-19^-19^-19^-19^-19^-19^-19^-19^---|
b-------------------------------------------------------------------|
g-------------------------------------------------------------------|
d-------------------------------------------------------------------|
a-------------------------------------------------------------------|
E-------------------------------------------------------------------|

e----------------------------------------------|
b----------------------------------------------|
g-12-12-12-12-12-12-12-12-12-12-11-11-9-9-9\7--|
d----------------------------------------------|
a-10-10-10-10-10-10-10-10-10-10--9--9-7-7-7\5--|
E----------------------------------------------|


       #=pick as many times as possible
e-------------------------------------------------|
b-------------------------------------------------|
g-12-12-12-12-12-12-12-12-12-12-20#-19#-19-19---4-|
d-----------------------------------------------5-|
a-10-10-10-10-10-10-10-10-10-10-17#-16#-16-16---5-|
E-----------------------------------------------3-|

And know here's the lyrics that I must include to this mighty song

Verse1
I me
Me be
Goddamn
I am
I can
Sing and,
here me
Know me

Chorus
If you want to destroy my sweater
(Oh oh oh oh oh) Hold this thread as i walk away
watch me unravel i'll soon be naked
Lying on the floor, i've come undone

Verse 2
Oh no
It go
It gone
Bye-bye (bye)
Who i
I think
I sink,
and i die!

Chorus before outro behind chorus 1 lyrics
I dont want to destroy your tank-top
Let's be friends and just walk away
Hate to see you lyin' there
In your superman scivvies
Lying on the floor, i've come undone
Tap to rate this tab
 
# A B C D E F G H I J K L M N O P Q R S T U V W X Y Z