Song name
# A B C D E F G H I J K L M N O P Q R S T U V W X Y Z

Weezer - Waiting On You tab

-------------------------------------------------------------------------------
			     SONG NAME - waiting on you
-------------------------------------------------------------------------------
Tabbed by:rather_dashing
Email:ewiniger@gmail.com

Tuning:standard
intro and verse
guitar 1
e|---------------------------------------------------------------------------|
B|---------------------------------------------------------------------------|
G|---------------------------------------------------------------------------|
D|---------------------------------------------------------------------------|
A|------9--8--6--4-6--8--9---------------------------------------------------|
E|------7--6--4--2-4--6--7---------------------------------------------------|
guitar 2
e|--------------------------------------------------------------------------------------|
B|--7---------11-------9--7----9---7---6---4--------------------------------------------|
G|--------------------------------------------------------------------------------------|
D|--------------------------------------------------------------------------------------|
A|--------------------------------------------------------------------------------------|
E|--------------------------------------------------------------------------------------|
chorus
e|------------------------------------------------------------------------------------|
B|------------------------------------------------------------------------------------|
G|------------------------------------------------------------------------------------|
D|----------6-------------------------------------------------------------------------|
A|-------9--4--4------8888------------------------------------------------------------|
E|-------7-----2------6666------------------------------------------------------------|
Tap to rate this tab
# A B C D E F G H I J K L M N O P Q R S T U V W X Y Z