Song name
# A B C D E F G H I J K L M N O P Q R S T U V W X Y Z

Weezer - Falling For You tab

-------------------------------------------------------------------------------
			     Falling For You - Weezer
-------------------------------------------------------------------------------

Tabbed by: cjpm105

Tuning: Guitar 1 - standard, half step down
        Guitar 2 - standard, half step down

Key
| /  slide up
| \  slide down
| h  hammer-on
| p  pull-off
| ~  sustain
| *  harmonic
| x  Mute note
| v  vibrato


When two sets of lines are separated by **********************, Guitar 1 will be above 
2 and they are being played simultaneously.

Intro (Clean)
Guitar 1
eb|-----16----------16----------16----------16----------16----------16--------|
Bb|-----------17----------17----------17----------17----------17----------17--|
Gb|--16----16----16----16----16----16----16----16----16----16----16----16-----|
Db|---------------------------------------------------------------------------|
Ab|---------------------------------------------------------------------------|
Eb|---------------------------------------------------------------------------|

eb|-----16----------16----------16----------16----------16----------16--------|
Bb|-----------17----------17----------17----------17----------17----------17--|
Gb|--16----16----16----16----16----16----16----16----16----16----16----16-----|
Db|---------------------------------------------------------------------------|
Ab|---------------------------------------------------------------------------|
Eb|---------------------------------------------------------------------------|
*******************************************************************************
eb|---------------------------------------------------------------------------------------|
Bb|---------------------------------------------------------------------------------------|
Gb|-----------------6--8--9-------------------------------------4--6--4--6b--6b-6b-6-4----|
Db|-----6--7--9----------------6----6--4-----6----------6------------------------------6--|
Ab|--7-----------7------------------------7-----7----7-----6------------------------------|
Eb|---------------------------------------------------------------------------------------|


Verse (Guitar 1)
eb|------------------------------------------------------------------------------------|
Bb|------------------------------------------------------------------------------------|
Gb|------------------------------------------------------------------------------------|
Db|--4--4--4--6----6----6----6----4----4----4----4----4----4----4----4----6----6----6--|
Ab|--4--4--4--4----4----4----4----4----4----4----4----2----2----2----2----6----6----6--|
Eb|--2--2--2--4----4----4----4----2----2----2----2----2----2----2----2----4----4----4--|

eb|------------------------------------------------------------------------------------|
Bb|------------------------------------------------------------------------------------|
Gb|------------------------------------------------------------------------------------|
Db|--2--2--2--6----6----6----6----7----7----7----7----9----9----9----9----2----2----2--|
Ab|--2--2--2--4----4----4----4----7----7----7----7----9----9----9----9----2----2----2--|
Eb|--0--0--0--4----4----4----4----5----5----5----5----7----7----7----7----0----0----0--|
(Strum each as 16th notes)**************************************************************
eb|------------------------------------------------------------------------------------|
Bb|----------12-------------10----9-------------------7-------------------5------------|
Gb|-----------x--------------x----x-------------------x-------------------x------------|
Db|-----------9--------------7----6-------------------4-------------------2------------|
Ab|------------------------------------------------------------------------------------|
Eb|------------------------------------------------------------------------------------|

eb|--------------------------------------------------------------------------------|
Bb|--------------------------------------------------------------------------------|
Gb|--------------------------------------------------------------------------------|
Db|--6----6----6----6----4----4----4----4----4----4----4----4----6----6----6----6--|
Ab|--4----4----4----4----4----4----4----4----2----2----2----2----6----6----6----6--|
Eb|--4----4----4----4----2----2----2----2----2----2----2----2----4----4----4----4--|
************************************************************************************
eb|--------------------------------------------------------------------------------|
Bb|-12-------------10----9-------------------7-------------------9-----------------|
Gb|--x--------------x----x-------------------x-------------------x-----------------|
Db|--9--------------7----6-------------------4-------------------6-----------------|
Ab|--------------------------------------------------------------------------------|
Eb|--------------------------------------------------------------------------------|

eb|--------------------------------------------------------------------------------|
Bb|--------------------------------------------------------------------------------|
Gb|--------------------------------------------------------------------------------|
Db|--2--2--2--6--6--6--6--6--6--6--6--4--4--4--4--4--4--4--4--6~--------6~---------|
Ab|--2--2--2--4--4--4--4--4--4--4--4--4--4--4--4--4--4--4--4--6~--------6~---------|
Eb|--0--0--0--4--4--4--4--4--4--4--4--2--2--2--2--2--2--2--2--4~--------4~---------|

Chorus
eb|------------------------------------------------------------------------------------------|
Bb|------------------------------------------------------------------------------------------|
Gb|------------------------------------------------------------------------------------------|
Db|--7--7--7--7--7--9--9--9--9--9--9--9--9--9--9--9--9--9--9--12---6--6--10-10-10-10---6--6--|
Ab|--7--7--7--7--7--9--9--7--7--7--7--7--7--7--7--9--9--9--9--12---6--6--10-10-10-10---6--6--|
Eb|--5--5--5--5--5--7--7--7--7--7--7--7--7--7--7--7--7--7--7--10---4--4---8--8--8--8---4--4--|

eb|-----------------------------------------------------------------------|
Bb|-----------------------------------------------------------------------|
Gb|-----------------------------------------------------------------------|
Db|--7--7--7--7--7--9--9--9--9--9--9--9--9--9--9--9--9--9--9--9--9--9--9--|
Ab|--7--7--7--7--7--9--9--7--7--7--7--7--7--7--7--9--9--9--9--9--9--9--9--|
Eb|--5--5--5--5--5--7--7--7--7--7--7--7--7--7--7--7--7--7--7--7--7--7--7--|

   1:03
eb|----------------------------------------|
Bb|----------------------------------------|
Gb|--9----9----7----7----------------------|
Db|--9----9----7----7----5----5----7----7--|
Ab|--7----7----5----5----5----5----7----7--|
Eb|--7----7----5----5----3----3----5----5--|

First Solo
eb|-----------------------------------------------------------------------|
Bb|-----------------------------------------------------------------------|
Gb|--7--7--7--7--7--7--7--7--4--4--4--4--4--4--4--4-----------------------|
Db|--7--7--7--7--7--7--7--7--4--4--4--4--4--4--4--4--7--7--7--7--7--7--7--|
Ab|--5--5--5--5--4--4--4--4--2--2--2--2--0--0--0--0--7--7--7--7--7--7--7--|
Eb|--------------------------------------------------4--4--4--4--5--5--5--|
***************************************************************************
eb|-----------------------------------------------------------------------|
Bb|-----------------------------------------------------------------------|
Gb|-----------------------------------------------------------------------|
Db|--------------------9--11--12------------------------------------------|
Ab|-----9--10--12-----------------9---------------------------------------|
Eb|--10------------10------------------10--12--10--12--10----10--12--9----|

eb|--------------------------------------------------------------|
Bb|--------------------------------------------------------------|
Gb|--------------------------------------------------------------|
Db|--7--7--4--4--4--4--6--6--6--6--------------------------------|
Ab|--7--7--4--4--4--4--6--6--6--6--------------------------------|
Eb|--5--5--2--2--2--2--4--4--4--4--------------------------------|
*****************************************************************
eb|--------------------------------------------------------------|
Bb|--------------------------------------------------------------|
Gb|---------------------7*-7--7p6--------------------------------|
Db|--7--9--7----7--9--------------9------------------------------|
Ab|--------------------------------------------------------------|
Eb|--------------------------------------------------------------|

Second Verse
eb|--------------------------------------------------------------------------------|
Bb|--------------------------------------------------------------------------------|
Gb|--------------------------------------------------------------------------------|
Db|--6----6----6----6----4----4----4----4----4----4----4----4----6----6----6----6--|
Ab|--4----4----4----4----4----4----4----4----2----2----2----2----6----6----6----6--|
Eb|--4----4----4----4----2----2----2----2----2----2----2----2----4----4----4----4--|

eb|------------------------------------------------------------------------------------|
Bb|------------------------------------------------------------------------------------|
Gb|------------------------------------------------------------------------------------|
Db|--2--2--2--6----6----6----6----7----7----7----7----9----9----9----9----2----2----2--|
Ab|--2--2--2--4----4----4----4----7----7----7----7----9----9----9----9----2----2----2--|
Eb|--0--0--0--4----4----4----4----5----5----5----5----7----7----7----7----0----0----0--|
****************************************************************************************
eb|------------------------------------------------------------------------------------|
Bb|----------12-------------10----9-------------------7-------------------5------------|
Gb|-----------x--------------x----x-------------------x-------------------x------------|
Db|-----------9--------------7----6-------------------4-------------------2------------|
Ab|------------------------------------------------------------------------------------|
Eb|------------------------------------------------------------------------------------|

eb|--------------------------------------------------------------------------------|
Bb|--------------------------------------------------------------------------------|
Gb|--------------------------------------------------------------------------------|
Db|--6----6----6----6----4----4----4----4----4----4----4----4----6----6----6----6--|
Ab|--4----4----4----4----4----4----4----4----2----2----2----2----6----6----6----6--|
Eb|--4----4----4----4----2----2----2----2----2----2----2----2----4----4----4----4--|
************************************************************************************
eb|--------------------------------------------------------------------------------|
Bb|-12-----------16--------14---------------------7--------------9-----------------|
Gb|--x------------x---------x---------------------x--------------x-----------------|
Db|--9-----------13--------11---------------------4--------------6-----------------|
Ab|--------------------------------------------------------------------------------|
Eb|--------------------------------------------------------------------------------|

eb|--------------------------------------------------------------------------------|
Bb|--------------------------------------------------------------------------------|
Gb|--------------------------------------------------------------------------------|
Db|--2--2--2--6--6--6--6--6--6--6--6--4--4--4--4--4--4--4--4--6~--------6~---------|
Ab|--2--2--2--4--4--4--4--4--4--4--4--4--4--4--4--4--4--4--4--6~--------6~---------|
Eb|--0--0--0--4--4--4--4--4--4--4--4--2--2--2--2--2--2--2--2--4~--------4~---------|

Second Chorus
eb|------------------------------------------------------------------------------------------|
Bb|------------------------------------------------------------------------------------------|
Gb|------------------------------------------------------------------------------------------|
Db|--7--7--7--7--7--9--9--9--9--9--9--9--9--9--9--9--9--9--9--12---6--6--10-10-10-10---6--6--|
Ab|--7--7--7--7--7--9--9--7--7--7--7--7--7--7--7--9--9--9--9--12---6--6--10-10-10-10---6--6--|
Eb|--5--5--5--5--5--7--7--7--7--7--7--7--7--7--7--7--7--7--7--10---4--4---8--8--8--8---4--4--|

eb|-----------------------------------------------------------------------|
Bb|-----------------------------------------------------------------------|
Gb|-----------------------------------------------------------------------|
Db|--7--7--7--7--7--9--9--9--9--9--9--9--9--9--9--9--9--9--9--9--9--9--9--|
Ab|--7--7--7--7--7--9--9--7--7--7--7--7--7--7--7--9--9--9--9--9--9--9--9--|
Eb|--5--5--5--5--5--7--7--7--7--7--7--7--7--7--7--7--7--7--7--7--7--7--7--|

eb|----------------------------------------|
Bb|----------------------------------------|
Gb|--9----9----7----7----------------------|
Db|--9----9----7----7----5----5----7----7--|
Ab|--7----7----5----5----5----5----7----7--|
Eb|--7----7----5----5----3----3----5----5--|

Second Solo
eb|--------------------------------------------------------------------|
Bb|--------------------------------------------------------------------|
Gb|--7--7--7--7--7--7--7--7--4--4--4--4--4--4--4--4--------------------|
Db|--7--7--7--7--7--7--7--7--4--4--4--4--4--4--4--4--7--7--7--7--7--7--|
Ab|--5--5--5--5--4--4--4--4--2--2--2--2--0--0--0--0--7--7--7--7--7--7--|
Eb|--------------------------------------------------4--4--4--4--5--5--|
************************************************************************
eb|--------------------------------------------------------------------|
Bb|--------------------------------------------------------------------|
Gb|--------------------------------------------------------------------|
Db|--------------------9--11--12---------------------------------------|
Ab|-----9--10--12-----------------9------------------------------------|
Eb|-10-------------10------------------10--12--10--12--10----10--12--9-|

eb|--------------------------------------------------------|
Bb|--------------------------------------------------------|
Gb|--------------------------------------------2--2--2--2--|
Db|--7--7--4--4--4--4--4--4--4--4--2--2--2--2--2--2--2--2--|
Ab|--7--7--4--4--4--4--2--2--2--2--2--2--2--2--0--0--0--0--|
Eb|--5--5--2--2--2--2--2--2--2--2--0--0--0--0--------------|
************************************************************
eb|--------------------------------------------------------|
Bb|--------------------------------------------------------|
Gb|--------------------------------9--11--11----11--12--9--|
Db|--7--9--7----7------------------------------------------|
Ab|-----------------10--9----------------------------------|
Eb|--------------------------------------------------------|

eb|--------------------------------------------------------------------------------------|
Bb|--------------------------------------------------------------------------------------|
Gb|--------------------------------------------------------------------------------------|
Db|--5----5----5----5----2----2----------------5----5----7----7----5----5----5----5------|
Ab|--5----5----5----5----2----2----------------3----3----5----5----5----5----5----5------|
Eb|--3----3----2----2----0----0----------------3----3----5----5----3----3----3----3------|
******************************************************************************************
eb|-------------------------14-14-12--12----------------------------------------12-12h14-|
Bb|-12--------10--------15---------------15-12---15--12-------------------12-15----------|
Gb|--x---------x---------x------------------------------14-12-14-12----------------------|
Db|--9---------7--------12---------------------------------------------------------------|
Ab|--------------------------------------------------------------------------------------|
Eb|--------------------------------------------------------------------------------------|

eb|--------------------------------------------------------------------------------------|
Bb|--------------------------------------------------------------------------------------|
Gb|--------------------------------------------------------------------------------------|
Db|--5----5----5----5----2----2----------------5----5----7----7--------------------------|
Ab|--5----5----5----5----2----2----------------3----3----5----5--------------------------|
Eb|--3----3----2----2----0----0----------------3----3----5----5--------------------------|
******************************************************************************************
eb|--22--22----22b24r22-20-19----19-19---------20-19----19--22---------------------------|
Bb|------------------------------------17-19-20----------------22b24r22--20-22-20--------|
Gb|--------------------------------------------------------------------------------------|
Db|--------------------------------------------------------------------------------------|
Ab|--------------------------------------------------------------------------------------|
Eb|--------------------------------------------------------------------------------------|

Third Verse (2:35)
eb|--------------------------------------------------------------------------------|
Bb|--------------------------------------------------------------------------------|
Gb|--------------------------------------------------------------------------------|
Db|--9----9----9----9----5----5----5----5----7----7----7----7----4----4----4----4--|
Ab|--7----7----7----7----3----3----3----3----5----5----5----5----2----2----2----2--|
Eb|--7----7----7----7----3----3----3----3----5----5----5----5----2----2----2----2--|
************************************************************************************
eb|--15~~~~------------------------------------------------------------------------|
Bb|----------------------13~~~~--------------15~~~~--------------------------------|
Gb|--------------------------------------------------------------16~~~~------------|
Db|--------------------------------------------------------------------------------|
Ab|--------------------------------------------------------------------------------|
Eb|--------------------------------------------------------------------------------|

eb|-----------------------------------------------------------------------------------------|
Bb|-----------------------------------------------------------------------------------------|
Gb|-----------------------------------------------------------------------------------------|
Db|--5--5--5--9----9----9----9----5----5----5----5----7----7----7----7----4----4----4----4--|
Ab|--5--5--5--7----7----7----7----3----3----3----3----5----5----5----5----2----2----2----2--|
Eb|--3--3--3--7----7----7----7----3----3----3----3----5----5----5----5----2----2----2----2--|
*********************************************************************************************
eb|-----------15------12--------------------17-15-------------------------------------------|
Bb|----------------------13-----12-13-----------------15-17------17-19-19~------------------|
Gb|-----------------------------------------------------------------------------------------|
Db|-----------------------------------------------------------------------------------------|
Ab|-----------------------------------------------------------------------------------------|
Eb|-----------------------------------------------------------------------------------------|

eb|--------------------------------------------------|
Bb|--------------------------------------------------|
Gb|--------------------------------------------------|
Db|--9--9--9--9--9--9--9--9--5--5--5--5--5--5--5--5--|
Ab|--7--7--7--7--7--7--7--7--3--3--3--3--3--3--3--3--|
Eb|--7--7--7--7--7--7--7--7--3--3--3--3--3--3--3--3--|

Final Chorus
eb|----------------------------------------------------------------------|
Bb|----------------------------------------------------------------------|
Gb|----------------------------------------------------------------------|
Db|--4~------4--4--4--4--5--5--5--5--5--7--7--7--5--5--5--5--5--5--5--5--|
Ab|--2~------2--2--2--2--3--3--3--3--3--5--5--5--5--5--5--5--5--5--5--5--|
Eb|--2~------2--2--2--2--3--3--3--3--3--5--5--5--3--3--3--3--3--3--3--3--|

eb|---------------------------------------------------------------------------------------|
Bb|---------------------------------------------------------------------------------------|
Gb|---------------------------------------------------------------------------------------|
Db|--7--7--7--7--10---4---8--8--8--8---4--4---5--5--5--5--5--7--7--7--5--5--5--5--5--5--5-|
Ab|--5--5--5--5---8---2---6--6--6--6---2--2---3--3--3--3--3--5--5--5--5--5--5--5--5--5--5-|
Eb|--5--5--5--5---8---2---6--6--6--6---2--2---3--3--3--3--3--5--5--5--3--3--3--3--3--3--3-|

eb|--------------------------------------------------------------------|
Bb|--------------------------------------------------------------------|
Gb|--------------------------------------------------------------------|
Db|--7--7--7--7----x--7--7--7--12----12---10---10----8----8----8----8--|
Ab|--5--5--5--5----x--5--5--5--10----10----8----8----8----8----6----6--|
Eb|--5--5--5--5----x--5--5--5--10----10----8----8----6----6----6----6--|

eb|------------------------------------------------------------------------|
Bb|------------------------------------------------------------------------|
Gb|------------------------------------------------------------------------|
Db|--12----12---10---10----8----8----8----8--------5~----------------------|
Ab|--10----10----8----8----8----8----6----6--------5~----------------------|
Eb|--10----10----8----8----6----6----6----6--------3~----------------------|
****************************************************************************
eb|--------15-15-15-15-15-15-15-15-15-15-15------------16~-------16~-------|
Bb|---------x--x--x--x--x--x--x--x--x--x--x--------------------------------|
Gb|--------12-12-12-12-12-12-12-12-12-12-12-------16~-------16~-------16~--|
Db|------------------------------------------------------------------------|
Ab|------------------------------------------------------------------------|
Eb|------------------------------------------------------------------------|
Tap to rate this tab
# A B C D E F G H I J K L M N O P Q R S T U V W X Y Z