Guitaretab - guitar tabs
Song name
# A B C D E F G H I J K L M N O P Q R S T U V W X Y Z

Weezer - Burndt Jamb tab

Intro (clean)

   Amaj7             Dmaj7         Bmin7                   E7
e|-----------------------------------------------------------------------|
b|-9-9-9-9-9-x-x-9-x-7-7-7-7-7-7-7-10-10-10-10-10x-x-10-x-9-9-9-9-9-9-9-|
g|-6-6-6-6-6-x-x-6-x-6-6-6-6-6-6-6-7--7--7--7--7--x-x-7--x-7-7-7-7-7-7-7-|
d|-7-7-7-7-7x-x-7-x-7-7-7-7-7-6-6-9--9--9--9--9--x-x-9--x-9-9-9-9-9-9-9-|
a|-----------------------------------------------------------------------|
E|-----------------------------------------------------------------------|

Verse (clean)

e|-----------------------------------------------------------------|
b|-----------------------------------------------------------------| repeat
g|-6---x-x-6-x-x-6-x-x-6-x-x-6-x-x-7---x-x-7-x-x-7-x-x-7-x-x-7-x-x-|
d|-7---x-x-7-x-x-7-x-x-7-x-x-7-x-x-9---x-x-9-x-x-9-x-x-9-x-x-9-x-x-|
a|-----------------------------------------------------------------|
E|-----------------------------------------------------------------|

e|-----------------------------------------------------------------|
b|-5---x-x-5-x-x-5-x-x-5-x-x-5-x-x-7---x-x-7-x-x-7-x-x-7-x-x-7-x-x-|
g|-6---x-x-6-x-x-6-x-x-6-x-x-6-x-x-7---x-x-7-x-x-7-x-x-7-x-x-7-x-x-|
d|-----------------------------------------------------------------|
a|-----------------------------------------------------------------|
E|-----------------------------------------------------------------|
[ Tab from: http://www.guitaretab.com/w/weezer/23230.html ]
e|-9-9-9-9-9-x-x-9-x-7-7-7-7-7-7-7---------------------------------|
b|-7-7-7-7-7-x-x-7-x-7-7-7-7-7-7-7-9-9-9-9-9-9-9-9-9-9-9-9-9-9-9-9-|
g|-7-7-7-7-7-x-x-7-x-7-7-7-7-7-7-7-7-7-7-7-7-7-7-7-7-7-7-7-7-7-7-7-|
d|---------------------------------9-9-9-9-9-9-9-9-9-9-9-9-9-9-9-9-|
a|-----------------------------------------------------------------|
E|-----------------------------------------------------------------|

Chorus (w/ distortion)

e|----------------------------------------------------------------------|
b|----------------------------------------------------------------------|
g|----------------5-7/9v------------------5-7/9v-----------------5-7/9v-|
d|-7-7--7-5-7-5-7----------7-7--7-5-7-5-7---------3-3--7-5-7-5-7--------|
a|-7-7---------------------7-7--------------------3-3-------------------|
E|-5-5---------------------5-5--------------------1-1-------------------|

e|----------------------------------------------|
b|----------------------------------------------|
g|----------------5-7/9v-----------------5-7/9v-|
d|-5-5--7-5-7-5-7---------7-7--7-5-7-5-7--------|
a|-5-5--------------------7-7-------------------|
E|-3-3--------------------5-5-------------------|


e|-----------------------------------|
b|-----------------------------------|
g|-----------------------------------|
d|--7-7-7-7-7-7-7-7-7-7-7-7-7-7-7-7--|
a|--7-7-7-7-7-7-7-7-7-7-7-7-7-7-7-7--|
E|--5-5-5-5-5-5-5-5-5-5-5-5-5-5-5-5--|

Solo (live from Camden)

e|--------------------------------------------------------------14-------|
b|-17vr--15-1717h19-17--14----------------------17-14-14p12-14----15----|
g|--------------------------16-1414h1616p14-16-------------------------|
d|-----------------------------------------------------------------------|
a|-----------------------------------------------------------------------|
E|-----------------------------------------------------------------------|

e|----------16-------------------|
b|-15p14-15----17vr-x-x-x-x-x-x--|
g|------------------x-x-x-x-x-x--|
d|-------------------------------|
a|-------------------------------|
E|-------------------------------|
Related for Burndt Jamb tab