Guitaretab - guitar tabs
Song name
# A B C D E F G H I J K L M N O P Q R S T U V W X Y Z

Weezer - Maladroit tab

Ok. These are not my tabs. other people 
tabbed them. i just copied them here. 
its easier to learn all the songs if 
they are together. here u go.

Tracks:
1.American Gigalo
2.Dope Nose
3.Keep Fishin'
4.Take Control
5.Death And Destruction
6.Slob
7.Burndt Jamb
8.Space Rock
9.Slave
10.Fall Together
11.Possibilities
12.Love Explosion
13.December


============================================================================
Title: American Gigalo
Artist: Weezer
Album: Maladroit

Instrument: Guitar

Tabbed by: Chris  (foundnewglory2001@hotmail.com)

Tuning: Standard (E A D G B E)Intro/Verse(x4): 
E|------------------------------------||
B|------------------------------------||
G|--------------5-5-5--6--7-----------||
D|-3-3-3--4--5--5-5-5--6--7-----------||
A|-3-3-3--4--5--3-3-3--4--5-----------||
E|-1-1-1--2--3------------------------||

E|--5\\\\\--------||
B|----------------||   This fill is only used in the first verse.
G|----------------||   It is played right after the first verse and       
D|----------------||   before the first prechorus.
A|----------------||
E|----------------||

Prechorus:
E|----------------||
B|----------------||
G|--7-------------||
D|--7-------------||
A|--5-------------||
E|----------------||

E|----------------||
B|--5b------------||
G|--5b------------||  Fill for the prechorus
D|----------------||
A|----------------||
E|----------------||

Chorus:
E|----------------||
B|----------------||
G|----------------||
D|-3--------------||
A|-3--------------||
E|-1--------------||

E|--/6--8--5------||
B|------------6---||
G|----------------|| Fill for the chorus
D|----------------||
A|----------------||
E|----------------||


Repeat Intro/Verse (x3)

Repeat Prechorus

Repeat Chorus


Breakdown:
E|------------------------------------------------||
B|------------------------------------------------||
G|------------------------------------------------||
D|-3-3-3-3--5-5-5-5-----------7-7-7-7-------------|| (x3)
A|-1-1-1-1--3-3-3-3--3-3-3-3--5-5-5-5-------------||
E|-------------------1-1-1-1----------------------||

then
E|------------------------||
B|------------------------||
G|------------------------||
D|-3-3-3-3--2-2-2-2-------||
A|-1-1-1-1--0-0-0-0-------||
E|------------------------||


Repeat Intro/Verse (x1)


Solo:
E|-----------------8-10--8h10h8-10--10-11-8-----10-8-8-----------||
B|-11-10-11--10-11---------------------------11--------11-10-----||
G|---------------------------------------------------------------||
D|---------------------------------------------------------------||
A|---------------------------------------------------------------||
E|---------------------------------------------------------------||


E|-13-10-13--10-15-13-11-10--13-11-10-8--11-10-8---------||
B|-----------------------------------------------11------||
G|-------------------------------------------------------||
D|-------------------------------------------------------||
A|-------------------------------------------------------||
E|-------------------------------------------------------||


Repeat Chorus

Repeat Breakdown

Repeat Intro/Verse (x3)


Outro:
E|---------------------------------||
B|---------------------------------||
G|-5-5-5--6--7---------------------||
D|-5-5-5--6--7---------------------|| (x2)
A|-3-3-3--4--5---------------------||
E|---------------------------------||

End with:
E|----------------||
B|----------------||
G|----------------||
D|-5--------------||
A|-5--------------||
E|-3--------------||


============================================================================
Dope Nose
as performed by Weezer
Words and Music by Rivers Cuomo

4/4 Time
Guitar is in Standard Tuning (EADGBe)
Bass is in Standard Tuning (EADG)


Intro

    Bb5                       Eb5     Bb5
e||---------------------------------|---------------------------------|
B||---------------------------------|---------------------------------|
G||---------------------------8-----|---------------------------------|
D||-8-----------8-------8-----8-----|-8-----------8-------8-----------|
A||-8-----------8-------8-----6-----|-8-----------8-------8-----------|
E||-6-----------6-------6-----6-----|-6-----------6-------6-----------|(Guitar)
/////////////////////////////////////////////////////////////////////\
G||---------------------------------|---------------------------------|
D||---------------------------------|---------------------------------|
A||---------------------------------|---------------------------------|
E||---------------------------------|-------------------------11\-----|(Bass)


Verse

   Bb5                       Eb5     Bb5                       Eb5
e|---------------------------------|---------------------------------|
B|---------------------------------|---------------------------------|
G|---------------------------8-----|---------------------------8-----|
D|-8-----------8-------8-----8-----|-8-----------8-------8-----8-----|
A|-8-----------8-------8-----6-----|-8-----------8-------8-----6-----|
E|-6-----------6-------6-----6-----|-6-----------6-------6-----6-----|(G1)
/////////////////////////////////////////////////////////////////////\
G|---------------------------------|---------------------------------|
D|---------------------------------|---------------------------------|
A|---------------------------6-----|---------------------------6-----|
E|-6-----------6-------6-----------|-6-----------6-------6-----------|(B)
   Oh                  Oh            oh          Oh

Bb5                     Eb5 Bb5                   Eb5
oh		Oh	oh		oh

   Bb5                       Eb5     Bb5                       Eb5
e|---------------------------------|---------------------------------|
B|---------------------------------|---------------------------------|
G|-*********PM**********-----8-----|-*********PM**********-----8-----|
D|-8-----------8-------8-----8-----|-8-----------8-------8-----8-----|
A|-8-----------8-------8-----6-----|-8-----------8-------8-----6-----|
E|-6-----------6-------6-----6-----|-6-----------6-------6-----6-----|(G1)
/////////////////////////////////////////////////////////////////////\
G|---------------------------------|---------------------------------|
D|---------------------------------|---------------------------------|
A|---------------------------6-----|---------------------------6-----|
E|-6-----------6-------6-----------|-6-----------6-------6-----------|(B)
   Dead                on    my      head                Wasting

   F5                        Eb5     Bb5         Eb5     Bb5   Eb5
e|---------------------------------|---------------------------------|
B|---------------------------------|---------------------------------|
G|-*********PM**********-----8-----|-*PM*--------8-------------8-----|
D|-3-----------3-------3-----8-----|-8-----------8-------8-----8-----|
A|-3-----------3-------3-----6-----|-8-----------6-------8-----6-----|
E|-1-----------1-------1-----6-----|-6-----------6-------6-----6-----|(G1)
/////////////////////////////////////////////////////////////////////\
G|---------------------------------|---------------------------------|
D|---------------------------------|---------------------------------|
A|---------------------------------|---------------------------6-----|
E|-1-----------1-------1-----1-----|-6-----------6-------6-----------|(B)
   time                on    my      own

Bb5		Eb5	Bb5		Eb5	F5		Eb5
Sleep      rescue       me         Take me      back         to my

   Bb5         Eb5     Bb5
e|---------------------------------|
B|---------------------------------|
G|-------------8-------------------|
D|-8-----------8-------8-----8---0-|
A|-8-----------6-------8-----8---0-|
E|-6-----------6-------6-----6-----|(G1)
///////////////////////////////////\
G|---------------------------------|
D|---------------------------------|
A|---------------------------------|
E|-6-----------6-------6-----------|(B)
   home


Chorus

   Eb5         Bb5             F5
e|---------------------------------|---------------------------------|
B|---------------------------------|-----11p10p8---------------------|
G|---------------------------------|-------------10--7---------------|
D|---------------------------------|---------------------10--8---10--|
A|---------------------------------|---------------------------------|
E|---------------------------------|---------------------------------|(G2)
/////////////////////////////////////////////////////////////////////\
e|---------------------------------|---------------------------------|
B|---------------------------------|---------------------------------|
G|-8---------------------------10--|-----10--10--10--10--10--10--10--|
D|-8-----------8---8-----------10--|-----10--10--10--10--10--10--10--|
A|-6-----------8---8-----------8---|-----8---8---8---8---8---8---8---|
E|-6-----------6---6-----------8---|-----8---8---8---8---8---8---8---|(G1)
/////////////////////////////////////////////////////////////////////\
G|---------------------------------|---------------------------------|
D|---------------------------------|-----3---3---3---3---3---3---3---|
A|-6-------------------------------|---------------------------------|
E|-------------6---6-----------1---|---------------------------------|(B)
   For         the times                 that    you wanna   go  and

   Eb5         Bb5             F5
e|---------------------------------|---------------------------------|
B|---------------------------------|---------------------------------|
G|---------------------------------|-----5h7-5h7-----5h7-5-----------|
D|---------------------------------|-------------------------8-------|
A|---------------------------------|---------------------------------|
E|---------------------------------|---------------------------------|(G2)
/////////////////////////////////////////////////////////////////////\
e|---------------------------------|---------------------------------|
B|---------------------------------|---------------------------------|
G|-8---8---8-------------------10--|-----10--10--10--10--10--10--10--|
D|-8---8---8---8---8---8---8---10--|-----10--10--10--10--10--10--10--|
A|-6---6---6---8---8---8---8---8---|-----8---8---8---8---8---8---8---|
E|-6---6---6---6---6---6---6---8---|-----8---8---8---8---8---8---8---|(G1)
/////////////////////////////////////////////////////////////////////\
G|---------------------------------|---------------------------------|
D|---------------------------------|---------3-------3---3---3---2---|
A|-6---6---6-----------------------|-----3---------------------------|
E|-------------6---6---6---6---1---|---------------------------------|(B)
       bust    rhymes  real    slow

   Eb5         Bb5             F5
e|---------------------------------|---------------------------------|
B|---------------------------------|-----11p10p8---------------------|
G|---------------------------------|-------------10--7---------------|
D|---------------------------------|---------------------10--8---10--|
A|---------------------------------|---------------------------------|
E|---------------------------------|---------------------------------|(G2)
/////////////////////////////////////////////////////////////////////\
e|---------------------------------|---------------------------------|
B|---------------------------------|---------------------------------|
G|-8---------------------------10--|-----10--10--10--10--10--10--10--|
D|-8-----------8---8-----------10--|-----10--10--10--10--10--10--10--|
A|-6-----------8---8-----------8---|-----8---8---8---8---8---8---8---|
E|-6-----------6---6-----------8---|-----8---8---8---8---8---8---8---|(G1)
/////////////////////////////////////////////////////////////////////\
G|---------------------------------|---------------------------------|
D|---------------------------------|---------------------------------|
A|-6-------------------------------|-------------------------0---1---|
E|-------------6---6-----------1---|-----1---1---2---3---4-----------|(B)
   I'll        appear                    Slap    you on  the face and

   Eb5         Bb5             F5
e|---------------------------------|---------------------------------|
B|---------------------------------|---------------------------------|
G|-8---8---8-------------------10--|-----10--10--10--10--10--10--10--|
D|-8---8---8---8---8---8---8---10--|-----10--10--10--10--10--10--10--|
A|-6---6---6---8---8---8---8---8---|-----8---8---8---8---8---8---8---|
E|-6---6---6---6---6---6---6---8---|-----8---8---8---8---8---8---8---|(G1)
/////////////////////////////////////////////////////////////////////\
G|---------------------------------|---------------------------------|
D|---------------------------------|---------------------------------|
A|-6---6---6-----------------------|---------------------------------|
E|-------------6---6---6---6---1---|-1---1---1---1---1---1---1---1---|(B)
       enjoy           the     show


Verse
(Played as previous verse)

Bb5		Eb5	Bb5		Eb5
Oh	     Oh		oh	    Oh
Bb5		Eb5	Bb5		Eb5
   oh        Oh oh         oh

Bb5           Eb5 
Cheese smells so 
Bb5     Eb5
good on a 
F5          Eb5
burnt piece of 
Bb5  Eb5  Bb5  Eb5
lamb

   Bb5                       Eb5     Bb5                       Eb5
e|---------------------------------|---------------------------------|
B|---------------------------------|---------------------------------|
G|-************PM***********-8-----|-************PM***********-8-----|
D|-8---8---8---8---8---8---8-8-----|-8---8---8---8---8---8---8-8-----|
A|-8---8---8---8---8---8---8-6-----|-8---8---8---8---8---8---8-6-----|
E|-6---6---6---6---6---6---6-6-----|-6---6---6---6---6---6---6-6-----|(G1)
/////////////////////////////////////////////////////////////////////\
G|---------------------------------|---------------------------------|
D|---------------------------------|---------------------------------|
A|---------------------------6-----|---------------------------6-----|
E|-6-----------6-------6-----------|-6-----------6-------6-----------|(B)
   Fag                 of  the       year                who could

   F5                        Eb5     Bb5         Eb5     Bb5   Eb5
e|---------------------------------|---------------------------------|
B|---------------------------------|---------------------------------|
G|-************PM***********-8-----|-------------8-------------8-----|
D|-3---3---3---3---3---3---3-8-----|-8-----------8-------8-----8-----|
A|-3---3---3---3---3---3---3-6-----|-8-----------6-------8-----6-----|
E|-1---1---1---1---1---1---1-6-----|-6-----------6-------6-----6-----|
/////////////////////////////////////////////////////////////////////\
G|---------------------------------|---------------------------------|
D|---------------------------------|---------------------------------|
A|---------------------------------|---------------------------------|
E|-1-----------1-------1-----1-----|-6-----------6-------6-----------|(B)
   beat                up    your    man


Chorus
(Played as previous chorus)

Eb5 Bb5
For the times
F5
that you wanna go and
Eb5  Bb5
Bust rhymes real
F5
slow
Eb5  Bb5
I'll appear
F5
Slap you on the face and
Eb5   Bb5
enjoy the
F5
show


Interlude

   Gb5
e|---------------------------------|---------------------------------|
B|---------------------------------|-21p18---21p18---21p1818-18------|
G|---------------------------------|------20------20-----------20p18-|
D|---------------------------------|---------------------------------|
A|---------------------------------|---------------------------------|
E|---------------------------------|---------------------------------|(G2)
/////////////////////////////////////////////////////////////////////\
e|---------------------------------|---------------------------------|
B|---------------------------------|---------------------------------|
G|-11--11--11--11--11--11--11--11--|-11--11--11--11--11--11--11--11--|
D|-11--11--11--11--11--11--11--11--|-11--11--11--11--11--11--11--11--|
A|-9---9---9---9---9---9---9---9---|-9---9---9---9---9---9---9---9---|
E|-9---9---9---9---9---9---9---9---|-9---9---9---9---9---9---9---9---|(G1)
/////////////////////////////////////////////////////////////////////\
G|---------------------------------|---------------------------------|
D|---------------------------------|---------------------------------|
A|---------------------------------|---------------------------------|
E|-2---2---2---2---2---2---2---2---|-2---2---2---2---2---2---2---2---|(B)
   Oh                                    this dope nose

Bb5		Eb5	Bb5		Eb5
Oh	     Oh		oh	    Oh
Bb5		Eb5	Bb5		Eb5
   oh        Oh oh         oh


Guitar Solo

(Guitar 1 and Bass play 1st verse)

   Bb5                                       Eb5
e|-------------------------------------------------|
B|-------------------------------------------------|
G|-15-13----13----13-------------------------------|
D|-------15----15----15----------13-11-13-11-------|
A|-------------------------------------------13-11-|
E|-------------------------------------------------|(G2)

   Bb5                                    Eb5
e|-------------------------------------------------|
B|-------------------------------------------------|
G|-------------------------------------------------|
D|-13-11----11-------------------------------11-13-|
A|-------13----13-11-13----------------11-13-------|
E|-------------------------------11-13-------------|(G2)

   F5                                     Eb5
e|-------------------------------------------------|
B|-------------------13----------------------------|
G|-------------------13b---------------------------|
D|-15----------15----------------15-------13----13-|
A|-------------------------------------------------|
E|-------------------------------------------------|(G2)

   Bb5                                    Eb5
e|-------------------------------------------------|
B|----------------------------------------13-------|
G|-------------------------------15-------13-------|
D|----------12-------12----------15----------------|
A|-------------------------------------------------|
E|-------------------------------------------------|(G2)

   Bb5                                    Eb5
e|-------------------------------------------------|
B|-13-------12-------12~~~~~~~~~-16-------15-------|
G|-13-------12-------12~~~~~~~~~-16-------15-------|
D|-------------------------------------------------|
A|-------------------------------------------------|
E|-------------------------------------------------|(G2)

   Bb5                                    Eb5
e|-------------------------------16-------15-------|
B|-15~~~~~~-13-------13----------16-------15-------|
G|-15~~~~~~-13-------13----------------------------|
D|-------------------------------------------------|
A|-------------------------------------------------|
E|-------------------------------------------------|(G2)

   F5                                     Eb5
e|-15-15-15-16-15-13-15-16-15-13----13-15-16-15-13-|
B|-------------------------------16----------------|
G|-------------------------------------------------|
D|-------------------------------------------------|
A|-------------------------------------------------|
E|-------------------------------------------------|(G2)

   Bb5                                    Eb5
e|-18--------18------------------------------------|
B|------------15-----15----------15----15\\\\------|
G|-------------15----15----------15----15\\\\------|
D|-------------------------------------------------|
A|-------------------------------------------------|
E|-------------------------------------------------|(G2)


Chorus
(Played as previous chorus)

Eb5 Bb5
For the times
F5
that you wanna go and
Eb5  Bb5
Bust rhymes real
F5
slow
Eb5  Bb5
I'll appear
F5
Slap you on the face and
Eb5   Bb5
enjoy the
F5
show


Interlude
(Played as previous interlude)

Gb5
Oh	this dope nose
Bb5		Eb5	Bb5		Eb5
Oh	     Oh		oh	    Oh
Bb5		Eb5	Bb5		Eb5
   oh        Oh oh         oh


Outro

   Eb5  Bb5  Eb5    Bb5  Eb5         Bb5
e|---------------------------------|---------------------------------||
B|---------------------------------|---------------------------------||
G|-8---------8-----------8----8----|---------------------------------||
D|-8----8----8------8----8----8----|-8\\\\\\\------------------------||
A|-6----8----6------8----6----6----|-8\\\\\\\------------------------||
E|-6----6----6------6----6----6----|-6\\\\\\\------------------------||
//////////////////////////////////////////////////////////////////////\
G|---------------------------------|---------------------------------||
D|---------------------------------|---------------------------------||
A|-6---------6-----------6----6----|---------------------------------||
E|------6-----------6--------------|-6\\\\\\\------------------------||


============================================================================
Keep Fishin

Riff (play every time you hear it on the album)
e-|-------------------|
b-|-------------------|
g-|---9p8-----11-8----|
d-|--------9----------|
a-|-------------------|
e-|-------------------|

             B             E
You'll never be a better kind
              B                 E
If you don't leave the world behind

         C#          F#
Waste my days (waste my days)
      C#          F#
Drowns away (drowns away)
F#               B       G#       E       C#      F# 
It's just the thought of you in love with someone else
F#           B         G#      E       C#       F#   
It breaks my heart to see you hanging from your shelf

             B                   E
You'll never do the things you want 
              B                E
If you don't move and get a job 

            C#          F#
Waste my days (waste my days)
      C#          F#
Drown aways (drown aways)                  
F#               B       G#       E       C#       F#
It's just the thought of you in love with someone else
F#             B      G#       E       C#        F#
It breaks my heart to see you hanging from your shelf

E                    B
Oh girl when I'm in love with you
E                    B
Keep fishin' if you feel it's true
E                         B      G#     E        C#   F#
There's nothing much that we can do to save you from yourself






Solo (over verse chords):
e-|-------------------------------------------------------------------------|
b-|-(12b13--13b12-11)-----------------------/12---12------------------------|
g-|-/13b14--14r13-11--/13--11------11-10h11----13----13-11-13-11----11------|
d-|----------------------------13--------------------------------13----13-11|
a-|-------------------------------------------------------------------------|
e-|-------------------------------------------------------------------------|

          C#          F#
Waste my days (waste my days)
      C#          F#
Drown aways (drown aways)                         
F#              B         G#      E       C#       F#
It's just the thought of you in love with someone else
F#             B       G#      E       C#         F# 
It breaks my heart to see you hanging from your shelf

E                    B
Oh girl when I'm in love with you
E                   B
Keep fishin' if you feel it's true
E                         B       G#    e       C#     F#
There's nothing much that we can do to save you from yourself

             B             E
You'll never be a better kind
             B             E
You'll never be a better kind
            B           E
(Waste my days) Whoa whoa...
            B           E
(Waste my days) Whoa whoa...
            B           E
(Waste my days) Whoa whoa...
            B           E
(Waste my days) Whoa whoa...
            B
(Waste my days)

============================================================================

-------------------------------------------------------------------------------
			     Take Control - Weezer
-------------------------------------------------------------------------------
Tabbed by: JWard
Email:jward_rocks_alot@yahoo.com

Tuning: Standard

This is a pretty good song from a pretty good album from a great band. I like this song 
but there was only one tab of it and it was bad so I decided to do one. This is my first 
so give me feedback and stuff.

Intro

e|-----------------------------------------|
B|-----------------------------------------|
G|---------------------------------4-------|
D|-6-6--4-6--4-6--4-6--4-6--4-6--4-4-6-4-5-|
A|-6-6--4-6--4-6--4-6--4-6--4-6--4-2-6-4-5-|
E|-4-4--2-4--2-4--2-4--2-4--2-4--2---4-2-3-|


e|-----------------------------------------|
B|-----------------------------------------|
G|---------------------------------4-------|
D|-6-6--4-6--4-6--4-6--4-6--4-6--4-4-6-4-5-|
A|-6-6--4-6--4-6--4-6--4-6--4-6--4-2-6-4-5-|
E|-4-4--2-4--2-4--2-4--2-4--2-4--2---4-2-3-|

e|-----------------------------------------|
B|-----------------------------------------|
G|---------------------------------4-------|
D|-6-6--4-6--4-6--4-6--4-6--4-6--4-4-6-4-5-|
A|-6-6--4-6--4-6--4-6--4-6--4-6--4-2-6-4-5-|
E|-4-4--2-4--2-4--2-4--2-4--2-4--2---4-2-3-|

Verse 1
(Palm Muted)

e|-----------------------------------------|
B|-----------------------------------------|
G|---------------------------------4-------|
D|-6-6--4-6--4-6--4-6--4-6--4-6--4-4-6-4-5-|
A|-6-6--4-6--4-6--4-6--4-6--4-6--4-2-6-4-5-|
E|-4-4--2-4--2-4--2-4--2-4--2-4--2---4-2-3-|

e|-----------------------------------------|
B|-----------------------------------------|
G|---------------------------------4-------|
D|-6-6--4-6--4-6--4-6--4-6--4-6--4-4-6-4-5-|
A|-6-6--4-6--4-6--4-6--4-6--4-6--4-2-6-4-5-|
E|-4-4--2-4--2-4--2-4--2-4--2-4--2---4-2-3-|

e|-----------------------------------------|
B|-----------------------------------------|
G|---------------------------------4-------|
D|-6-6--4-6--4-6--4-6--4-6--4-6--4-4-6-4-5-|
A|-6-6--4-6--4-6--4-6--4-6--4-6--4-2-6-4-5-|
E|-4-4--2-4--2-4--2-4--2-4--2-4--2---4-2-3-|

e|-----------------------------------------|
B|-----------------------------------------|
G|---------------------------------4-------|
D|-6-6--4-6--4-6--4-6--4-6--4-6--4-4-6-----|
A|-6-6--4-6--4-6--4-6--4-6--4-6--4-2-6-----|
E|-4-4--2-4--2-4--2-4--2-4--2-4--2---4-----|

Chorus

e|---------------------------------------------------------------------------|
B|---------------------------------------------------------------------------|
G|-44444444-66666666-44444444-66666666-------------------4-4-44--------------|
D|-44444444-66666666-44444444-66666666-66666666-44444444-4-4-44-8-9-8-9-8-6--|
A|-22222222-44444444-22222222-44444444-66666666-44444444-2-2-22-8-9-8-9-8-6--|
E|-------------------------------------44444444-22222222--------6-7-6-7-6-4--|

Interlude

e|-----------------------------------------|
B|-----------------------------------------|
G|---------------------------------4-------|
D|-6-6--4-6--4-6--4-6--4-6--4-6--4-4-6-4-5-|
A|-6-6--4-6--4-6--4-6--4-6--4-6--4-2-6-4-5-|
E|-4-4--2-4--2-4--2-4--2-4--2-4--2---4-2-3-|

Verse 2

Chorus

Bridge

e|---------------------------------------------|
B|---------------------------------------------|
G|----------------------------4-44-44----------|
D|-2-22-4-4-2-22-4-4-2-22-4-4-4-44-44-4-44-4-4-|
A|-2-22-4-4-2-22-4-4-2-22-4-4-2-22-22-4-44-4-4-|
E|-0-00-2-2-0-00-2-2-0-00-2-2---------2-22-2-2-|

e|-----------------------------------------|
B|-----------------------------------------|
G|---------------------------------4-------|
D|-6-6--4-6--4-6--4-6--4-6--4-6--4-4-6-4-5-|
A|-6-6--4-6--4-6--4-6--4-6--4-6--4-2-6-4-5-|
E|-4-4--2-4--2-4--2-4--2-4--2-4--2---4-2-3-|

Solo

e|-------------------------------------------------------------|
B|-------------------------------------------------------------|
G|-------------------------------------------------------------|
D|-13-9----9-13-9----9-----------------------------------------|
A|------13--------13---13-11-13-11-9---------9----9----9-11-11-|
E|-----------------------------------11-11-----11---11---------|

e|---------------------------------------------------------------------------|
B|---------------------------------------------------------------------------|
G|------------------------------------------------------------11-------------|
D|------------------------11-9-11---13-11-13---14-13-14-13-11----14-13-------|
A|-13-11-13-11-13-14-14------------------------------------------------------|
E|---------------------------------------------------------------------------|

e|------------------------------------------------------------|
B|------------------------------------------------------------|
G|------------------------------------------------------------|
D|-14-13-11-13-11-9-11-9--------------------------------------|
A|-----------------------13-14-13-11-13-14-11--13-14-11--9-11-|
E|------------------------------------------------------------|

Chorus

Bridge

Outro

e|-----------------------------------------|
B|-----------------------------------------|
G|---------------------------------4-------|
D|-6-6--4-6--4-6--4-6--4-6--4-6--4-4-6-4-5-|
A|-6-6--4-6--4-6--4-6--4-6--4-6--4-2-6-4-5-|
E|-4-4--2-4--2-4--2-4--2-4--2-4--2---4-2-3-|

e|-----------------------------------------|
B|-----------------------------------------|
G|---------------------------------4-------|
D|-6-6--4-6--4-6--4-6--4-6--4-6--4-4-6-4-5-|
A|-6-6--4-6--4-6--4-6--4-6--4-6--4-2-6-4-5-|
E|-4-4--2-4--2-4--2-4--2-4--2-4--2---4-2-3-|

e|-----------------------------------------|
B|-----------------------------------------|
G|---------------------------------4-------|
D|-6-6--4-6--4-6--4-6--4-6--4-6--4-4-6-4-5-|
A|-6-6--4-6--4-6--4-6--4-6--4-6--4-2-6-4-5-|
E|-4-4--2-4--2-4--2-4--2-4--2-4--2---4-2-3-|

e|-----------------------------------------|
B|-----------------------------------------|
G|---------------------------------4-------|
D|-6-6--4-6--4-6--4-6--4-6--4-6--4-4-6-----|
A|-6-6--4-6--4-6--4-6--4-6--4-6--4-2-6-----|
E|-4-4--2-4--2-4--2-4--2-4--2-4--2---4-----|

| /  slide up
| \  slide down
| h  hammer-on
| p  pull-off
| ~  vibrato
| +  harmonic
| x  Mute note
===============================================================================

============================================================================

Death And Destruction

Tabbed by: Anthony Moore
Email: ant-dizzle409@sbcglobal.net

Played as though it抯 only done on one guitar.


Intro: (clean)
e|---------------9--------|
B|----10-----10-----------|
G|-------11--------9------|
D|-(0)--------------------|
A|------------------------|
E|------------------------|

Fig 1 (Tons of crunch, mid-low tone on the bass pickup)
e|------------------------|
B|------------------------|
G|-----6--------6---------|
D|--7--6--4--6--7---------|
A|--7--4--5--7--7---------|
E|--5-----2--4--5---------|

Verse: (clean)
"I can't say that you love me"
e|---------------------------------------------------------------------------|
B|---------------------------------------------------------------------------|
G|----7---7---7---7-------6---6---6---6-------4---4---4-4--------------------|
D|--9---9---9---9---9---7---7---7---7---7---4---4---4------7--6--6--6h7p6-4--|
A|---------------------------------------------------------------------------|
E|---------------------------------------------------------------------------|

"So I cry and I'm hurting"
e|----------------------------------------------------7𧯝𦴘4梙--5-------|
B|-----------------10----------------------------------------------------h7--|
G|----7---7--9--11---------6---6---6---6------4---4--------------------------|
D|--9---9----------------7---7---7---7---7--4---4----------------------------|
A|---------------------------------------------------------------------------|
E|---------------------------------------------------------------------------|

Fig 1 (Crunchy distortion)
e|------------------------|
B|------------------------|
G|-----6--------6---------|
D|--7--6--4--6--7---------|
A|--7--4--5--7--7---------|
E|--5-----2--4--5---------|

Verse: (clean)
"Every time that I call you"
e|---------------------------------------------------------------------------|
B|---------------------------------------------------------------------------|
G|----7---7---7---7-------6---6---6---6-------4---4---4----------------------|
D|--9---9---9---9---9---7---7---7---7---7---4---4---4----7--6--6--6h7p6-4----|
A|---------------------------------------------------------------------------|
E|---------------------------------------------------------------------------|

"You find some way to ditch me"
e|---------------------------------------------------------------------------|
B|-----------------10--------------------------------------------------------|
G|----7---7--9--11---------6---6---6---6------4---4---4-4--------------------|
D|--9---9----------------7---7---7---7---7--4---4---4------7--6--6--6h7p6-4--|
A|---------------------------------------------------------------------------|
E|---------------------------------------------------------------------------|

Chorus: (same tone as Fig 1)
"So I'll learn to turn and look the other way..."
e|------------------------------------------------------------------------|
B|--7--7--5-5-------------------------------------------------------------|
G|--7--7--6-6--------4--4-------------------6-7-9-7-6-7-6---6-------------|
D|--7--7--6-6--4--4--4--4-------------6-7-9---------------9---9-7-9-7-6---|
A|--5--5--4-4--4--4--2--2-----------7-------------------------------------|
E|-------------2--2--2--2-------------------------------------------------|

Fig 1: (Crunchy distortion)
e|------------------------|
B|------------------------|
G|-----6--------6---------|
D|--7--6--4--6--7---------|
A|--7--4--5--7--7---------|
E|--5-----2--4--5---------|

Solo: (w/Fig 1 Tone)    Parentheses = Palm Mute
e|---------------------------------------------------------------------------|
B|---------------------------------------------------------------------------|
G|---------------------------------------------------------------------------|
D|---7/9-7-6h7p6---------------6---------------------------------------------|
A|----------------9p7--(9-7-9)---(9-7-5-7-5-4)-5-(4)-2-(4-2)-------------0---|
E|-----------------------------------------------------------(5-4-5-4-2)-----|

e|----------------------------------|
B|----------------------------------|
G|--------------6-----9b10b9--------|
D|---7--9b10b9----------------------|
A|-----------------7----------------|
E|----------------------------------|

Chorus: (same tone as Fig 1)
"So I'll learn to turn and look the other way..."
e|------------------------------------------------------------------------|
B|--7--7--5-5-------------------------------------------------------------|
G|--7--7--6-6--------4--4-------------------6-7-9-7-6-7-6---6-------------|
D|--7--7--6-6--4--4--4--4-------------6-7-9---------------9---9-7-9-7-6---|
A|--5--5--4-4--4--4--2--2-----------7-------------------------------------|
E|-------------2--2--2--2-------------------------------------------------|

Fig 1 (Crunchy distortion)
e|------------------------|
B|------------------------|
G|-----6--------6---------|
D|--7--6--4--6--7---------|
A|--7--4--5--7--7---------|
E|--5-----2--4--5---------|

Outro
Guitar 1
e|--------------------------------------4-----|
B|--------------------------------------2-----|
G|-----------------8-8--7-7--6-6--4-4---2-----|
D|--4-4--3-3--2-2--8-8--7-7--6-6--4-4---2-----|
A|--4-4--3-3--2-2--6-6--5-5--4-4--2-2---0-----|
E|--2-2--1-1--0-0-----------------------------|


============================================================================

Tabbed By:  The Spuz (http://www.xboxadict.com)
NOTE: This isn't from the song book, but it sounds good with the cd,
so what can I say?

E------------------------------------
B---------5-----------------5--------
G-----6------6---6------6-----6---6--
D-------6------6----------6-----6----
A--4-----------------4---------------
E------------------------------------

E------------------------------------
B---------5-----------------5--------
G-----6------6---6------6-----6---6--
D-------6------6----------6-----6----
A--4-----------------4---------------
E------------------------------------

E------------------------------------
B---------5-----------------5--------
G-----6------6---6------6-----6---6--
D-------6------6----------6-----6----
A--4-----------------4---------------
E------------------------------------
   Leave                    Me

E------------------------------------
B----------4-----------------4-------
G-----5-------5---5------5-----5---5-
D-------6-------6----------6-----6---
A------------------------------------
E--4------------------4--------------
   Alone                     I wont

E------------------------------------
B----------4-----------------5-------
G-----5-------5---5------6-----6---6-
D-------6-------6----------7-----7---
A------------------------------------
E--4------------------5--------------

   Pick          Up the phone

E--------------------------------------------------
B---------9---------------7---------------5-----8--
G-----9-----9---9-----8-----8---8----6------6------
D-------9-----9---------9-----9--------7------7----
A--7-----------------------------------------------
E------------------7---------------5---------------
   And I won't listen to messages

E--------------------------------------------------
B---------9---------------7---------------5-----8--
G-----9-----9---9-----8-----8---8----6------6------
D-------9-----9---------9-----9--------7------7----
A--7-----------------------------------------------
E------------------7---------------5---------------
   left by some one who calls up and says

E--------------------------------------------------------------------
B---------9---------------7------------------------------------------
G-----9-----9---9-----8-----8---8----6-6-6-6-6-6-6-6-6-6-6-6-6-6-6-6-
D-------9-----9---------9-----9------7-7-7-7-7-7-7-7-7-7-7-7-7-7-7-7-
A--7---------------------------------7-7-7-7-7-7-7-7-7-7-7-7-7-7-7-7-
E------------------7-----------------5-5-5-5-5-5-5-5-5-5-5-5-5-5-5-5-
  I don't like how you're living my life              Get yourself a

E-----------------------------------------
B-----------------------------------------
G--5-5-5-5-5-5-5-5-5-5-5-5-5-5-5-5-5-5----
D--6-6-6-6-6-6-6-6-6-6-6-6-6-6-6-6-6-6----
A--6-6-6-6-6-6-6-6-6-6-6-6-6-6-6-6-6-6----
E--4-4-4-4-4-4-4-4-4-4-4-4-4-4-4-4-4-4----
   Wife                 Get yourself a

E-----------------------------------------
B-----------------------------------------
G--6-6-6-6-6-6-6-6-6-6-6-6-6-6-6-6-6-6----
D--7-7-7-7-7-7-7-7-7-7-7-7-7-7-7-7-7-7----
A--7-7-7-7-7-7-7-7-7-7-7-7-7-7-7-7-7-7----
E--5-5-5-5-5-5-5-5-5-5-5-5-5-5-5-5-5-5----
   Job                  You're Living a

E-----------------------------------------
B-----------------------------------------
G-----------------------------------------
D--9-9-9-9-9-9-9-9-9-9-9-9-9-9-9-9-9-9----
A--9-9-9-9-9-9-9-9-9-9-9-9-9-9-9-9-9-9----
E--7-7-7-7-7-7-7-7-7-7-7-7-7-7-7-7-7-7----
   Dream                Don't you be a

E------------------------------------
B---------5-----------------5--------
G-----6------6---6------6-----6---6--
D-------6------6----------6-----6----
A--4-----------------4---------------
E------------------------------------
   Slob

E------------------------------------
B---------5-----------------5--------
G-----6------6---6------6-----6---6--
D-------6------6----------6-----6----
A--4-----------------4---------------
E------------------------------------

E------------------------------------
B---------5-----------------5--------
G-----6------6---6------6-----6---6--
D-------6------6----------6-----6----
A--4-----------------4---------------
E------------------------------------
   Leave                    Me

E------------------------------------
B----------4-----------------4-------
G-----5-------5---5------5-----5---5-
D-------6-------6----------6-----6---
A------------------------------------
E--4------------------4--------------
   Again                dont hang out

E------------------------------------
B----------4-----------------5-------
G-----5-------5---5------6-----6---6-
D-------6-------6----------7-----7---
A------------------------------------
E--4------------------5--------------

              in my den       waiting

E----------------------------------------------------
B--------------------------------------------------8-
G--9-9-9-9-9-9-9-9-----------------------------------
D--9-9-9-9-9-9-9-9-9-9-9-9-9-9-9-9-7-7-7-7-7-7-7-7---
A--7-7-7-7-7-7-7-7-9-9-9-9-9-9-9-9-7-7-7-7-7-7-7-7---
E------------------7-7-7-7-7-7-7-7-5-5-5-5-5-5-5-5---
   for little      clues    to     appear

E----------------------------------------------------
B--------------------------------------------------8-
G--9-9-9-9-9-9-9-9-----------------------------------
D--9-9-9-9-9-9-9-9-9-9-9-9-9-9-9-9-7-7-7-7-7-7-7-7---
A--7-7-7-7-7-7-7-7-9-9-9-9-9-9-9-9-7-7-7-7-7-7-7-7---
E------------------7-7-7-7-7-7-7-7-5-5-5-5-5-5-5-5---
   that I          drank some of   grand daddie's beer I don't

E------------------------------------------------------------------
B------------------------------------------------------------------
G--9-9-9-9-9-9-9-9-------------------------------------------------
D--9-9-9-9-9-9-9-9-9-9-9-9-9-9-9-9-7-7-7-7-7-7-7-7-7-7-7-7-7-7-7-7-
A--7-7-7-7-7-7-7-7-9-9-9-9-9-9-9-9-7-7-7-7-7-7-7-7-7-7-7-7-7-7-7-7-
E------------------7-7-7-7-7-7-7-7-5-5-5-5-5-5-5-5-5-5-5-5-5-5-5-5-
   like how you're living          my life          get yourself a 

E------------------------------------------------------------------
B------------------------------------------------------------------
G------------------------------------------------------------------
D--6-6-6-6-6-6-6-6-6-6-6-6-6-6-6-6-7-7-7-7-7-7-7-7-7-7-7-7-7-7-7-7-
A--6-6-6-6-6-6-6-6-6-6-6-6-6-6-6-6-7-7-7-7-7-7-7-7-7-7-7-7-7-7-7-7-
E--4-4-4-4-4-4-4-4-4-4-4-4-4-4-4-4-5-5-5-5-5-5-5-5-5-5-5-5-5-5-5-5-
   wife             get yourself a job             you're living a

E----------------------------------
B----------------------------------
G----------------------------------
D--9-9-9-9-9-9-9-9-9-9-9-9-9-9-9-9-
A--9-9-9-9-9-9-9-9-9-9-9-9-9-9-9-9-
E--7-7-7-7-7-7-7-7-7-7-7-7-7-7-7-7-
   Dream            don't you be a

E----------------------------------
B--5---5---5-5---5---5-5-5-5-5-5-5-
G--6---6---6-6---6---6-6-6-6-6-6-6-
D--6---6---6-6---6---6-6-6-6-6-6-6-
A--4---4---4-4---4---4-4-4-4-4-4-4-
E----------------------------------

E----------------------------------
B--5---5---5-5---5---5-5-5-5-5-5-5-
G--6---6---6-6---6---6-6-6-6-6-6-6-
D--6---6---6-6---6---6-6-6-6-6-6-6-
A--4---4---4-4---4---4-4-4-4-4-4-4-
E----------------------------------
slob

E------------------------------------------------------------------
B------------------------------------------------------------------
G--4---4---4-4---4---4-4-4-4-4-4-4-5---5---5-5---5---5-5-5-5-5-5-5-
D--4---4---4-4---4---4-4-4-4-4-4-4-5---5---5-5---5---5-5-5-5-5-5-5-
A--2---2---2-2---2---2-2-2-2-2-2-2-3---3---3-3---3---3-3-3-3-3-3-3-
E------------------------------------------------------------------
   slob
 
E---------------
B--4---5--4--2--
G---------------
D---------------
A---------------
E---------------

E--9----9--12--------------------------------------------------
B--------------7----13-12h13---12----9--14--12---9-7--7-8-7--5-
G--------------------------------------------------------------
D--------------------------------------------------------------
A--------------------------------------------------------------
E--------------------------------------------------------------
                                                        waiting

E----------------------------------------------------
B--------------------------------------------------8-
G--9-9-9-9-9-9-9-9-----------------------------------
D--9-9-9-9-9-9-9-9-9-9-9-9-9-9-9-9-7-7-7-7-7-7-7-7---
A--7-7-7-7-7-7-7-7-9-9-9-9-9-9-9-9-7-7-7-7-7-7-7-7---
E------------------7-7-7-7-7-7-7-7-5-5-5-5-5-5-5-5---
   for      little clues        to appear     that I

E----------------------------------------------------
B--------------------------------------------------8-
G--9-9-9-9-9-9-9-9-----------------------------------
D--9-9-9-9-9-9-9-9-9-9-9-9-9-9-9-9-7-7-7-7-7-7-7-7---
A--7-7-7-7-7-7-7-7-9-9-9-9-9-9-9-9-7-7-7-7-7-7-7-7---
E------------------7-7-7-7-7-7-7-7-5-5-5-5-5-5-5-5---
   drank   some of grand daddies   beer    I don't

E------------------------------------------------------------------
B------------------------------------------------------------------
G--9-9-9-9-9-9-9-9-------------------------------------------------
D--9-9-9-9-9-9-9-9-9-9-9-9-9-9-9-9-7-7-7-7-7-7-7-7-7-7-7-7-7-7-7-7-
A--7-7-7-7-7-7-7-7-9-9-9-9-9-9-9-9-7-7-7-7-7-7-7-7-7-7-7-7-7-7-7-7-
E------------------7-7-7-7-7-7-7-7-5-5-5-5-5-5-5-5-5-5-5-5-5-5-5-5-
   like how you're living       my life             get yourself a

E------------------------------------------------------------------
B------------------------------------------------------------------
G------------------------------------------------------------------
D--6-6-6-6-6-6-6-6-6-6-6-6-6-6-6-6-7-7-7-7-7-7-7-7-7-7-7-7-7-7-7-7-
A--6-6-6-6-6-6-6-6-6-6-6-6-6-6-6-6-7-7-7-7-7-7-7-7-7-7-7-7-7-7-7-7-
E--4-4-4-4-4-4-4-4-4-4-4-4-4-4-4-4-5-5-5-5-5-5-5-5-5-5-5-5-5-5-5-5-
   wife             get yourself a job             you're living a

E----------------------------------
B----------------------------------
G----------------------------------
D--9-9-9-9-9-9-9-9-9-9-9-9-9-9-9-9-
A--9-9-9-9-9-9-9-9-9-9-9-9-9-9-9-9-
E--7-7-7-7-7-7-7-7-7-7-7-7-7-7-7-7-
   dream            don't you be a
E----------------------------------
B--5---5---5-5---5---5-5-5-5-5-5-5-
G--6---6---6-6---6---6-6-6-6-6-6-6-
D--6---6---6-6---6---6-6-6-6-6-6-6-
A--4---4---4-4---4---4-4-4-4-4-4-4-
E----------------------------------
   slob

E----------------------------------
B--5---5---5-5---5---5-5-5-5-5-5-5-
G--6---6---6-6---6---6-6-6-6-6-6-6-
D--6---6---6-6---6---6-6-6-6-6-6-6-
A--4---4---4-4---4---4-4-4-4-4-4-4-
E----------------------------------

E------------------------------------------------------------------
B------------------------------------------------------------------
G--4---4---4-4---4---4-4-4-4-4-4-4-5---5---5-5---5---5-5-5-5-5-5-5-
D--4---4---4-4---4---4-4-4-4-4-4-4-5---5---5-5---5---5-5-5-5-5-5-5-
A--2---2---2-2---2---2-2-2-2-2-2-2-3---3---3-3---3---3-3-3-3-3-3-3-
E------------------------------------------------------------------
   slob

E---------------
B--4---5--4--2--
G---------------
D---------------
A---------------
E---------------


============================================================================
=========================
=========================
===       Weezer      ===
===    Burndt Jamb    ===
=== By: Kurt Andersen ===
=========================
=========================

regular tuning

e--high
B
G
D
A
E--low

b - bend
/ - slide
h - hammer on
p - pull off

-Here We Go-

e--4-4-4-4-4----4-2-2-2-2-2-2-2----5-5-5-5-5----5-4-4-4-4-4-4-4----
B--2-2-2-2-2----2-2-2-2-2-2-2-2----3-3-3-3-3----3-3-3-3-3-3-3-3----
G--2-2-2-2-2----2-2-2-2-2-2-2-2----4-4-4-4-4----4-4-4-4-4-4-4-4----
D------------------------------------------------------------------
A------------------------------------------------------------------
E------------------------------------------------------------------

e--4-4-4-4-4----4-2-2-2-2-2-2-2----5-5-5-5-5----5-4-4-4-4-4-4-4----
B--2-2-2-2-2----2-2-2-2-2-2-2-2----3-3-3-3-3----3-3-3-3-3-3-3-3----
G--2-2-2-2-2----2-2-2-2-2-2-2-2----4-4-4-4-4----4-4-4-4-4-4-4-4----
D------------------------------------------------------------------
A------------------------------------------------------------------
E------------------------------------------------------------------

Gothic flavor...                          I'd be happy...
e--4-4-4-4-4--5-5-5-5-5--4-4-4-4-4--5-5-5-5-5--7-7-7-7-7--9-9-9-9-9
B--2-2-2-2-2--3-3-3-3-3--2-2-2-2-2--3-3-3-3-3--5-5-5-5-5--7-7-7-7-7
G------------------------------------------------------------------
D------------------------------------------------------------------
A------------------------------------------------------------------
E------------------------------------------------------------------

of my lifetime, I'd be there...
e--10-10-12-10-10--10-10-12-10-10
B--10-10-10-10-10--10-10-10-10-10
G--10-10-10-10-10--10-10-10-10-10
D--------------------------------
A--------------------------------
E--------------------------------

e--4-4-4-4-4----4-2-2-2-2-2-2-2----5-5-5-5-5----5-4-4-4-4-4-4-4----
B--2-2-2-2-2----2-2-2-2-2-2-2-2----3-3-3-3-3----3-3-3-3-3-3-3-3----
G--2-2-2-2-2----2-2-2-2-2-2-2-2----4-4-4-4-4----4-4-4-4-4-4-4-4----
D------------------------------------------------------------------
A------------------------------------------------------------------
E------------------------------------------------------------------

 In the water...                       make me happy...
e--4-4-4-4-4--5-5-5-5-5--4-4-4-4-4--5-5-5-5-5--7-7-7-7-7--9-9-9-9-9
B--2-2-2-2-2--3-3-3-3-3--2-2-2-2-2--3-3-3-3-3--5-5-5-5-5--7-7-7-7-7
G------------------------------------------------------------------
D------------------------------------------------------------------
A------------------------------------------------------------------
E------------------------------------------------------------------

of my lifetime, I'd be there...
e--10-10-12-10-10--10-10-12-10-10
B--10-10-10-10-10--10-10-10-10-10
G--10-10-10-10-10--10-10-10-10-10
D--------------------------------
A--------------------------------
E--------------------------------

e------------------------------------------------------------------------------
B------------------------------------------------------------------------------
G---------------5-7b---------------5-7b----------------5-7b---------------5-7b-
D--7-7-5-5-7-5-7-------7-7-5-5-7-5-7-------3-7-5-5-7-5-7------5-7-5-5-7-5-7----
A--7-------------------7-------------------3------------------5----------------
E--5-------------------5-------------------1------------------3----------------

e-------------------
B-------------------
G---------------5-7b
D--7-7-5-5-7-5-7----
A--7----------------
E--5----------------

e------------------------------------------------------------------------------
B------------------------------------------------------------------------------
G----------------5-7b---------------5-7b----------------5-7b---------------5-7b
D--7-7-5-5-7-5-7-------7-7-5-5-7-5-7-------3-7-5-5-7-5-7------5-7-5-5-7-5-7----
A--7-------------------7-------------------3------------------5----------------
E--5-------------------5-------------------1------------------3----------------

e-------------------
B-------------------
G---------------5-7b
D--7-7-5-5-7-5-7----
A--7----------------
E--5----------------

e--4-4-4-4-4----4-2-2-2-2-2-2-2----5-5-5-5-5----5-4-4-4-4-4-4-4----
B--2-2-2-2-2----2-2-2-2-2-2-2-2----3-3-3-3-3----3-3-3-3-3-3-3-3----
G--2-2-2-2-2----2-2-2-2-2-2-2-2----4-4-4-4-4----4-4-4-4-4-4-4-4----
D------------------------------------------------------------------
A------------------------------------------------------------------
E------------------------------------------------------------------

Solo:
e---------------------------------------0---------2---------4-0-4--
B-------------------2-2-------------------2-2p0-2---3-3p2-2--------
G--2---2--2/4-4---------4-2-2-2-4-4p2-4----------------------------
D----2----------2-2------------------------------------------------
A------------------------------------------------------------------
E------------------------------------------------------------------

Make me happy...
e-------7-7-7-7-7--9-9-9-9-9--10-10-12-10-10--10-10-12-10-10--
B-------5-5-5-5-5--7-7-7-7-7--10-10-10-10-10--10-10-10-10-10--
G-----------------------------10-10-10-10-10--10-10-10-10-10--
D-------------------------------------------------------------
A-------------------------------------------------------------
E-------------------------------------------------------------

e------------------------------------------------------------------------------
B------------------------------------------------------------------------------
G---------------5-7b---------------5-7b----------------5-7b---------------5-7b-
D--7-7-5-5-7-5-7-------7-7-5-5-7-5-7-------3-7-5-5-7-5-7------5-7-5-5-7-5-7----
A--7-------------------7-------------------3------------------5----------------
E--5-------------------5-------------------1------------------3----------------

e-------------------
B-------------------
G---------------5-7b
D--7-7-5-5-7-5-7----
A--7----------------
E--5----------------

e--4-4-4-4-4----4-2-2-2-2-2-2-2----5-5-5-5-5----5-4-4-4-4-4-4-4----
B--2-2-2-2-2----2-2-2-2-2-2-2-2----3-3-3-3-3----3-3-3-3-3-3-3-3----
G--2-2-2-2-2----2-2-2-2-2-2-2-2----4-4-4-4-4----4-4-4-4-4-4-4-4----
D------------------------------------------------------------------
A------------------------------------------------------------------
E------------------------------------------------------------------

   Ooooooh....
e--4-4-4-4-4----4-2-2-2-2-2-2-2----5-5-5-5-5----5-4-4-4-4-4-4-4----
B--2-2-2-2-2----2-2-2-2-2-2-2-2----3-3-3-3-3----3-3-3-3-3-3-3-3----
G--2-2-2-2-2----2-2-2-2-2-2-2-2----4-4-4-4-4----4-4-4-4-4-4-4-4----
D------------------------------------------------------------------
A------------------------------------------------------------------
E------------------------------------------------------------------

   Ooooooh....
e--4-4-4-4-4----4-2-2-2-2-2-2-2----5-5-5-5-5----5-4-4-4-4-4-4-4----
B--2-2-2-2-2----2-2-2-2-2-2-2-2----3-3-3-3-3----3-3-3-3-3-3-3-3----
G--2-2-2-2-2----2-2-2-2-2-2-2-2----4-4-4-4-4----4-4-4-4-4-4-4-4----
D------------------------------------------------------------------
A------------------------------------------------------------------
E------------------------------------------------------------------

   Ooooooh....
e--4-4-4-4-4----4-2-2-2-2-2-2-2----5-5-5-5-5----5-4-4-4-4-4-4-4----
B--2-2-2-2-2----2-2-2-2-2-2-2-2----3-3-3-3-3----3-3-3-3-3-3-3-3----
G--2-2-2-2-2----2-2-2-2-2-2-2-2----4-4-4-4-4----4-4-4-4-4-4-4-4----
D------------------------------------------------------------------
A------------------------------------------------------------------
E------------------------------------------------------------------

e--4--------5--------4--------4-5--------5p4-4--------4h5-5--------5(let ring)--
B--2--------3--------2----------------------------------------------------------
G--2--------4--------2----------------------------------------------------------
D-------------------------------------------------------------------------------
A-------------------------------------------------------------------------------
E-------------------------------------------------------------------------------

END


============================================================================

Song: Space Rock
Artist: Weezer
Album: Maladroit
Tabber: Monkeyguy629 (Jacob)
	   e-mail corrections to monkeyguy629@aol.com

Eighth track on Maladroit, tuned standard with heavy distortion.

STRUMMING PATTERNS NOT INCLUDED

e--------------------|
B-10-9-10------------|
G--------------------|
D---------777-777-777|
A--------------------|
E--------------------|

Guitar Two: (While Guitar One plays an A power chord)

e--------------------------------------|
B10-9--5-7-9-7-5-----------------------|
G-x-x--x-x-x-x-x--6-7-6-4--6-7-6-4-----|
D-7-6--2-4-6-4-2--x-x-x-x--x-x-x-x-767-|
A-----------------4-5-4-2--4-5-4-2-xxx-|
E----------------------------------545-|

The A power chord continues during the "oo oo oo"'s, every once in a while you
get one of these:

e--------------------|
B-10-9-10------------|
G--------------------|
D---------777-777-777|
A--------------------|
E--------------------|

Followed by:

e--------------------|
B-10-9-7-5-----------|
G--------------------|
D--------------------|
A--------------------|
E--------------------|

Which goes right into the verse:

Verse One:

e--0------------------------------------------------------|
B--5------------------------------------------------------|
G--4-------------------------2----------------------------|
D--2-------------------------2----------------------------|
A--x-------------------------0----------------------------|
E--0------------------------------------------------------|

   You wanna cry when you're dealing with the kids.

(repeat the part played during the "oo oo oo"'s, then)

e--0------------------------------------------------------|
B--5-------------------------------------------3----------|
G--4-------------------------------------1-----2----4-----|
D--2----------------------------4--------2-----0----4-----|
A--x----------------------------4--------2-----0----2-----|
E--0----------------------------2--------0----------------|

   They know it all and they're pinning you to boards.

e---------------------------------------------------------|
B-----------------3---------------------------3-----------|
G-------------1---2---4-------------------1---2---4-------|
D---------4---2---0---4---------------4---2---0---4-------|
A---------4---2---0---2---------------4---2---0---2-------|
E---------2---0-----------------------2---0---------------|

  It's a game.			And you'll play.			But

e---------------------------------------------------------|
B-----------------------3-----------------------3---------|
G---------------1-------2--------4----------1---2---4----2|
D---4-----------2-------0--------4------4---2---0---4----2|
A---4-----------2-------0--------2------4---2---0---2----0|
E---2-----------0-----------------------2---0-------------|

you can't have fun when all they do is say             lies

This is played during that last line (but you...)

e---------------------------------------------------------|
B---------7-----5--------5----7---5-----------------------|
G---------x-----x----6---x----x---x----6--4--66-44-7-4--2-|
D---------4-----2----x---2----4---2----x--x--xx-xx-x-x--2-|
A--------------------4-----------------4--2--44-22-5-2--0-|
E---------------------------------------------------------|

  But you can't have fun when all they do is say      lies.


Riff after chorus, before solo.

e---------------|
B10-9--5-7-9-7-5|
G-x-x--x-x-x-x-x|
D-7-6--2-4-6-4-2|
A---------------|
E---------------|


Solo: (While Guitar One plays A power chord)

e---------------------------------------------------------|
B---------------------------------------------------------|
G-12b12b12b12--------------------------------12-12-9-12-9-|
D------------12-11-9-11-12-11-12-11-12-11-11--------------|
A---------------------------------------------------------|
E---------------------------------------------------------|

e---------------------------------------------------------|
B----12--10h12p10-9-10-8h10p8-7-8b8888888-----------------|
G-12------------------------------------------------------|
D---------------------------------------------------------|
A---------------------------------------------------------|
E---------------------------------------------------------|

Then play the chorus again from "They know it all."

FIN.



-------------------------------------------------------------------------------
			     Slave - Weezer
-------------------------------------------------------------------------------

Tabbed by: cjpm105

Tuning: Guitar 1 - Standard
        Guitar 2 - Standard

Key
/  slide up
\  slide down
h  hammer-on
p  pull-off
~  sustain
b  bend
[ Tab from: http://www.guitaretab.com/w/weezer/23093.html ]
Intro
e|------------------------------------------------------------------|
B|------------------------------------------------------------------|
G|------------------------------------9--9--9---9----9-9--9--9---9--|
D|--9--9--9---9----9-9--9--9---9----9-9--9--9---9----9-9--9--9---9--|
A|--9--9--9---9----9-9--9--9---9----9-7--7--7---7----7-7--7--7---7--|
E|--7--7--7---7----7-7--7--7---7----7-7--7--7---7----7-7--7--7---7--|
*********************************************************************
e|------------------------------------------------------------------|
B|------------------------------------------------------------------|
G|-------------------------------------------------6--9--7--6-------|
D|----------------------------------------------6--------------9----|
A|------------------------------------------------------------------|
E|------------------------------------------------------------------|

e|-----------------------------------------------------------------------|
B|-----------------------------------------------------------------------|
G|--9-6--6--6---6----6-6--6--6---6----6----------------------------------|
D|--9-6--6--6---6----6-6--6--6---6----6-4-4-4-4-4---4-4---4-4---4-4---4--|
A|--7-4--4--4---4----4-4--4--4---4----4-4-4-4-4-4---4-4---4-4---4-4---4--|
E|--7-4--4--4---4----4-4--4--4---4----4-2-2-2-0-2---0-2---0-2---0-2---0--|
**************************************************************************
e|-----------------------------------------------------------------------|
B|-----------------------------------------------------------------------|
G|----6-------------6----------------------------------------------------|
D|-----------6-------------------9---7--7~-------------------------------|
A|-----------------------------------------------------------------------|
E|-----------------------------------------------------------------------|

Verse
e|------------------------------------------------------------------------------------------------|
B|------------------------------------------------------------------------------------------------|
G|-7--7--7--7--7--7--7--7--4--4--4--4--4--4--4--4--------------------------9--9--9--9--9--9--9--9-|
D|-7--7--7--7--7--7--7--7--4--4--4--4--4--4--4--4--7--7--7--7--7--7--7--7--9--9--9--9--9--9--9--9-|
A|-5--5--5--5--5--5--5--5--2--2--2--2--2--2--2--2--7--7--7--7--7--7--7--7--7--7--7--7--7--7--7--7-|
E|-5--5--5--5--5--5--5--5--2--2--2--2--2--2--2--2--5--5--5--5--5--5--5--5--7--7--7--7--7--7--7--7-|
***************************************************************************************************
e|-------------------------------------------------------------------------9------7---------------|
B|------------------------------------------------------------------------------------------------|
G|---------------------------------------------------------------------------------------7--------|
D|------------------------------------------------------------------------------------------------|
A|------------------------------------------------------------------------------------------------|
E|------------------------------------------------------------------------------------------------|

e|------------------------------------------------------------------------------------------------|
B|------------------------------------------------------------------------------------------------|
G|-7--7--7--7--7--7--7--7--4--4--4--4--4--4--4--4--------------------------9--9--9--9--9--9--9--9-|
D|-7--7--7--7--7--7--7--7--4--4--4--4--4--4--4--4--7--7--7--7--7--7--7--7--9--9--9--9--9--9--9--9-|
A|-5--5--5--5--5--5--5--5--2--2--2--2--2--2--2--2--7--7--7--7--7--7--7--7--7--7--7--7--7--7--7--7-|
E|-5--5--5--5--5--5--5--5--2--2--2--2--2--2--2--2--5--5--5--5--5--5--5--5--7--7--7--7--7--7--7--7-|
***************************************************************************************************
e|-------------------------------------------------------------------------9------7---------------|
B|--10~-------------------------------------------------------------------------------------------|
G|---------------------------------------------------------------------------------------7--------|
D|------------------------------------------------------------------------------------------------|
A|------------------------------------------------------------------------------------------------|
E|------------------------------------------------------------------------------------------------|

Chorus
e|------------------------------------------------------------------------------------------------|
B|------------------------------------------------------------------------------------------------|
G|-7--7--7--7--7--7--7--7--------------------------7--7--7--7--7--7--7--7-------------------------|
D|-7--7--7--7--7--7--7--7--7--7--7--7--7--7--7--7--7--7--7--7--7--7--7--7--7--7--7--7--7--7--7--7-|
A|-5--5--5--5--5--5--5--5--7--7--7--7--7--7--7--7--5--5--5--5--5--5--5--5--7--7--7--7--7--7--7--7-|
E|-5--5--5--5--5--5--5--5--5--5--5--5--5--5--5--5--5--5--5--5--5--5--5--5--5--5--5--5--5--5--5--5-|
***************************************************************************************************
e|-10-9-----10----9----9---------------------------10-9-----10----9----9--------------------------|
B|------10----------10-----10------10~------------------10----------10-----10------10~------------|
G|----------------------------11-9--------------------------------------------11-9----------------|
D|------------------------------------------------------------------------------------------------|
A|------------------------------------------------------------------------------------------------|
E|------------------------------------------------------------------------------------------------|

e|------------------------------------------------------------------------------------------------|
B|------------------------------------------------------------------------------------------------|
G|-7--7--7--7--7--7--7--7--------------------------7--7--7--7--7--7--7--7--7--7--7--7--7--7--7--7-|
D|-7--7--7--7--7--7--7--7--7--7--7--7--7--7--7--7--7--7--7--7--7--7--7--7--7--7--7--7--7--7--7--7-|
A|-5--5--5--5--5--5--5--5--7--7--7--7--7--7--7--7--5--5--5--5--5--5--5--5--5--5--5--5--5--5--5--5-|
E|-5--5--5--5--5--5--5--5--5--5--5--5--5--5--5--5--5--5--5--5--5--5--5--5--5--5--5--5--5--5--5--5-|
***************************************************************************************************
e|-10-9-----10----9----9---------------------------10-9-----10-9-----10-9-----10-9----10-9----9---|
B|------10----------10-----10------10~------------------10-------10-------10------10------10------|
G|----------------------------11-9----------------------------------------------------------------|
D|------------------------------------------------------------------------------------------------|
A|------------------------------------------------------------------------------------------------|
E|------------------------------------------------------------------------------------------------|

e|------------------------------------------------|
B|------------------------------------------------|
G|-6--6--6--6--6--6--6--6--7--7--7--7--7--7--7--7-|
D|-6--6--6--6--6--6--6--6--7--7--7--7--7--7--7--7-|
A|-4--4--4--4--4--4--4--4--5--5--5--5--5--5--5--5-|
E|-4--4--4--4--4--4--4--4--5--5--5--5--5--5--5--5-|
***************************************************
e|------------------------------------------------|
B|-10-------10--------------------10~-------------|
G|----11-9--------11--9--------9------------------|
D|-------------------------12---------------------|
A|------------------------------------------------|
E|------------------------------------------------|

Second Verse
e|------------------------------------------------------------------------------------------------|
B|------------------------------------------------------------------------------------------------|
G|-7--7--7--7--7--7--7--7--4--4--4--4--4--4--4--4--------------------------9--9--9--9--9--9--9--9-|
D|-7--7--7--7--7--7--7--7--4--4--4--4--4--4--4--4--7--7--7--7--7--7--7--7--9--9--9--9--9--9--9--9-|
A|-5--5--5--5--5--5--5--5--2--2--2--2--2--2--2--2--7--7--7--7--7--7--7--7--7--7--7--7--7--7--7--7-|
E|-5--5--5--5--5--5--5--5--2--2--2--2--2--2--2--2--5--5--5--5--5--5--5--5--7--7--7--7--7--7--7--7-|
***************************************************************************************************
e|-------------------------------------------------------------------------9------7---------------|
B|------------------------------------------------------------------------------------------------|
G|---------------------------------------------------------------------------------------7--------|
D|------------------------------------------------------------------------------------------------|
A|------------------------------------------------------------------------------------------------|
E|------------------------------------------------------------------------------------------------|

e|------------------------------------------------------------------------------------------------|
B|------------------------------------------------------------------------------------------------|
G|-7--7--7--7--7--7--7--7--4--4--4--4--4--4--4--4--------------------------9--9--9--9--9--9--9--9-|
D|-7--7--7--7--7--7--7--7--4--4--4--4--4--4--4--4--7--7--7--7--7--7--7--7--9--9--9--9--9--9--9--9-|
A|-5--5--5--5--5--5--5--5--2--2--2--2--2--2--2--2--7--7--7--7--7--7--7--7--7--7--7--7--7--7--7--7-|
E|-5--5--5--5--5--5--5--5--2--2--2--2--2--2--2--2--5--5--5--5--5--5--5--5--7--7--7--7--7--7--7--7-|
***************************************************************************************************
e|-------------------------------------------------------------------------9------7---------------|
B|--10~-------------------------------------------------------------------------------------------|
G|---------------------------------------------------------------------------------------7--------|
D|------------------------------------------------------------------------------------------------|
A|------------------------------------------------------------------------------------------------|
E|------------------------------------------------------------------------------------------------|

Second Chorus
e|------------------------------------------------------------------------------------------------|
B|------------------------------------------------------------------------------------------------|
G|-7--7--7--7--7--7--7--7--------------------------7--7--7--7--7--7--7--7-------------------------|
D|-7--7--7--7--7--7--7--7--7--7--7--7--7--7--7--7--7--7--7--7--7--7--7--7--7--7--7--7--7--7--7--7-|
A|-5--5--5--5--5--5--5--5--7--7--7--7--7--7--7--7--5--5--5--5--5--5--5--5--7--7--7--7--7--7--7--7-|
E|-5--5--5--5--5--5--5--5--5--5--5--5--5--5--5--5--5--5--5--5--5--5--5--5--5--5--5--5--5--5--5--5-|
***************************************************************************************************
e|-10-9-----10----9----9---------------------------10-9-----10----9----9--------------------------|
B|------10----------10-----10------10~------------------10----------10-----10------10~------------|
G|----------------------------11-9--------------------------------------------11-9----------------|
D|------------------------------------------------------------------------------------------------|
A|------------------------------------------------------------------------------------------------|
E|------------------------------------------------------------------------------------------------|

e|------------------------------------------------------------------------------------------------|
B|------------------------------------------------------------------------------------------------|
G|-7--7--7--7--7--7--7--7--------------------------7--7--7--7--7--7--7--7--7--7--7--7--7--7--7--7-|
D|-7--7--7--7--7--7--7--7--7--7--7--7--7--7--7--7--7--7--7--7--7--7--7--7--7--7--7--7--7--7--7--7-|
A|-5--5--5--5--5--5--5--5--7--7--7--7--7--7--7--7--5--5--5--5--5--5--5--5--5--5--5--5--5--5--5--5-|
E|-5--5--5--5--5--5--5--5--5--5--5--5--5--5--5--5--5--5--5--5--5--5--5--5--5--5--5--5--5--5--5--5-|
***************************************************************************************************
e|-10-9-----10----9----9---------------------------10-9-----10-9-----10-9-----10-9----10-9----9---|
B|------10----------10-----10------10~------------------10-------10-------10------10------10------|
G|----------------------------11-9----------------------------------------------------------------|
D|------------------------------------------------------------------------------------------------|
A|------------------------------------------------------------------------------------------------|
E|------------------------------------------------------------------------------------------------|

e|------------------------------------------------|
B|------------------------------------------------|
G|-6--6--6--6--6--6--6--6--7--7--7--7--7--7--7--7-|
D|-6--6--6--6--6--6--6--6--7--7--7--7--7--7--7--7-|
A|-4--4--4--4--4--4--4--4--5--5--5--5--5--5--5--5-|
E|-4--4--4--4--4--4--4--4--5--5--5--5--5--5--5--5-|
***************************************************
e|------------------------------------------------|
B|-10-------10--------------------10~-------------|
G|----11-9--------11--9--------9------------------|
D|-------------------------12---------------------|
A|------------------------------------------------|
E|------------------------------------------------|

Bridge
e|------------------------------------------------------------------|
B|------------------------------------------------------------------|
G|------------------------------------9--9--9---9----9-9--9--9---9--|
D|--9--9--9---9----9-9--9--9---9----9-9--9--9---9----9-9--9--9---9--|
A|--9--9--9---9----9-9--9--9---9----9-7--7--7---7----7-7--7--7---7--|
E|--7--7--7---7----7-7--7--7---7----7-7--7--7---7----7-7--7--7---7--|
*********************************************************************
e|------------------------------------------------------------------|
B|------------------------------------------------------------------|
G|-------------------------------------------------6--9--7--6-------|
D|----------------------------------------------6--------------9----|
A|------------------------------------------------------------------|
E|------------------------------------------------------------------|

e|-----------------------------------------------------------------------|
B|-----------------------------------------------------------------------|
G|--9-6--6--6---6----6-6--6--6---6----6----------------------------------|
D|--9-6--6--6---6----6-6--6--6---6----6-4-4-4-4-4---4-4---4-4---4-4---4--|
A|--7-4--4--4---4----4-4--4--4---4----4-4-4-4-4-4---4-4---4-4---4-4---4--|
E|--7-4--4--4---4----4-4--4--4---4----4-2-2-2-0-2---0-2---0-2---0-2---0--|
**************************************************************************
e|-----------------------------------------------------------------------|
B|-----------------------------------------------------------------------|
G|----6-------------6----------------------------------------------------|
D|-----------6-------------------9---7--7~-------------------------------|
A|-----------------------------------------------------------------------|
E|-----------------------------------------------------------------------|

Solo
e|------------------------------------------------------------------------------------------------|
B|------------------------------------------------------------------------------------------------|
G|-7--7--7--7--7--7--7--7--4--4--4--4--4--4--4--4--------------------------9--9--9--9--9--9--9--9-|
D|-7--7--7--7--7--7--7--7--4--4--4--4--4--4--4--4--7--7--7--7--7--7--7--7--9--9--9--9--9--9--9--9-|
A|-5--5--5--5--5--5--5--5--2--2--2--2--2--2--2--2--7--7--7--7--7--7--7--7--7--7--7--7--7--7--7--7-|
E|-5--5--5--5--5--5--5--5--2--2--2--2--2--2--2--2--5--5--5--5--5--5--5--5--7--7--7--7--7--7--7--7-|
***************************************************************************************************
e|-------------------------------------------------9-------9--9~------10---7~------9b--7----7-----|
B|-10~-------9~----7~------10~------9~----7~---------------------------------------------10---10~-|
G|------------------------------------------------------------------------------------------------|
D|------------------------------------------------------------------------------------------------|
A|------------------------------------------------------------------------------------------------|
E|------------------------------------------------------------------------------------------------|

e|------------------------------------------------------------------------------------------------|
B|------------------------------------------------------------------------------------------------|
G|-7--7--7--7--7--7--7--7--4--4--4--4--4--4--4--4--------------------------9--9--9--9--9--9--9--9-|
D|-7--7--7--7--7--7--7--7--4--4--4--4--4--4--4--4--7--7--7--7--7--7--7--7--9--9--9--9--9--9--9--9-|
A|-5--5--5--5--5--5--5--5--2--2--2--2--2--2--2--2--7--7--7--7--7--7--7--7--7--7--7--7--7--7--7--7-|
E|-5--5--5--5--5--5--5--5--2--2--2--2--2--2--2--2--5--5--5--5--5--5--5--5--7--7--7--7--7--7--7--7-|
***************************************************************************************************
e|----------14~------------14----12----------------14----12---------------------------------------|
B|-----------------------------------15--14------------------15--14-------15--14-12---------12----|
G|---------------------------------------------14---------------------14------------14---14----14-|
D|------------------------------------------------------------------------------------------------|
A|------------------------------------------------------------------------------------------------|
E|------------------------------------------------------------------------------------------------|

Final Chorus
e|------------------------------------------------------------------------------------------------|
B|------------------------------------------------------------------------------------------------|
G|-7--7--7--7--7--7--7--7--------------------------7--7--7--7--7--7--7--7-------------------------|
D|-7--7--7--7--7--7--7--7--7--7--7--7--7--7--7--7--7--7--7--7--7--7--7--7--7--7--7--7--7--7--7--7-|
A|-5--5--5--5--5--5--5--5--7--7--7--7--7--7--7--7--5--5--5--5--5--5--5--5--7--7--7--7--7--7--7--7-|
E|-5--5--5--5--5--5--5--5--5--5--5--5--5--5--5--5--5--5--5--5--5--5--5--5--5--5--5--5--5--5--5--5-|
***************************************************************************************************
e|-10-9-----10----9----9---------------------------10-9-----10----9----9--------------------------|
B|------10----------10-----10------10~------------------10----------10-----10------10~------------|
G|----------------------------11-9--------------------------------------------11-9----------------|
D|------------------------------------------------------------------------------------------------|
A|------------------------------------------------------------------------------------------------|
E|------------------------------------------------------------------------------------------------|

e|------------------------------------------------------------------------------------------------|
B|------------------------------------------------------------------------------------------------|
G|-7--7--7--7--7--7--7--7--------------------------7--7--7--7--7--7--7--7--7--7--7--7--7--7--7--7-|
D|-7--7--7--7--7--7--7--7--7--7--7--7--7--7--7--7--7--7--7--7--7--7--7--7--7--7--7--7--7--7--7--7-|
A|-5--5--5--5--5--5--5--5--7--7--7--7--7--7--7--7--5--5--5--5--5--5--5--5--5--5--5--5--5--5--5--5-|
E|-5--5--5--5--5--5--5--5--5--5--5--5--5--5--5--5--5--5--5--5--5--5--5--5--5--5--5--5--5--5--5--5-|
***************************************************************************************************
e|-10-9-----10----9----9---------------------------10-9-----10-9-----10-9-----10-9----10-9----9---|
B|------10----------10-----10------10~------------------10-------10-------10------10------10------|
G|----------------------------11-9----------------------------------------------------------------|
D|------------------------------------------------------------------------------------------------|
A|------------------------------------------------------------------------------------------------|
E|------------------------------------------------------------------------------------------------|

e|------------------------------------------------|
B|------------------------------------------------|
G|-6--6--6--6--6--6--6--6--7--7--7--7--7--7--7--7-|
D|-6--6--6--6--6--6--6--6--7--7--7--7--7--7--7--7-|
A|-4--4--4--4--4--4--4--4--5--5--5--5--5--5--5--5-|
E|-4--4--4--4--4--4--4--4--5--5--5--5--5--5--5--5-|
***************************************************
e|------------------------------------------------|
B|-10-------10--------------------10~-------------|
G|----11-9--------11--9--------9------------------|
D|-------------------------12---------------------|
A|------------------------------------------------|
E|------------------------------------------------|

Outro
e|------------------------------------------------------------------------------------------------|
B|------------------------------------------------------------------------------------------------|
G|-7--7--7--7--7--7--7--7--4--4--4--4--4--4--4--4--7--7--7--7--7--7--7--7--4--4--4--4--4--4--4--4-|
D|-7--7--7--7--7--7--7--7--4--4--4--4--4--4--4--4--7--7--7--7--7--7--7--7--4--4--4--4--4--4--4--4-|
A|-5--5--5--5--5--5--5--5--2--2--2--2--2--2--2--2--5--5--5--5--5--5--5--5--2--2--2--2--2--2--2--2-|
E|-5--5--5--5--5--5--5--5--2--2--2--2--2--2--2--2--5--5--5--5--5--5--5--5--2--2--2--2--2--2--2--2-|

e|------------------------------------------------------------------------------------------------|
B|------------------------------------------------------------------------------------------------|
G|-7--7--7--7--7--7--7--7--4--4--4--4--4--4--4--4-------------------------------------------------|
D|-7--7--7--7--7--7--7--7--4--4--4--4--4--4--4--4--7--7--7--7--7--7--7--7--5--5--5--5--5--5--5--5-|
A|-5--5--5--5--5--5--5--5--2--2--2--2--2--2--2--2--7--7--7--7--7--7--7--7--5--5--5--5--5--5--5--5-|
E|-5--5--5--5--5--5--5--5--2--2--2--2--2--2--2--2--5--5--5--5--5--5--5--5--3--3--3--3--3--3--3--3-|

e|------------------------------------------------------------------------------------------------|
B|------------------------------------------------------------------------------------------------|
G|------------------------------------------------------------------------------------------------|
D|--7~--------------------------------------------------------------------------------------------|
A|--7~--------------------------------------------------------------------------------------------|
E|--5~--------------------------------------------------------------------------------------------|

============================================================================

Fall Together

All of the tabs I've seen are close, but not it. I'm sure that this is 100%
correct. I've even tabbed the solo, which took way too long to get right. 

Key:

pm = palm mute
/ = slide
h = hammer on
p = pull off
b = bend


Intro

E----------------------------------------------------------------
B----------------------------------------------------------------
G--------------2---------------------------2---------------------
D-4-4-4--------2---2-2-2--3----4-4-4-------2---2-2-2-2--3--------
A-4-4-4---0h2--0---2-2-2--3----4-4-4--0h2--0---2-2-2-2--3--------
E-2-2-2------------0-0-0--1----2-2-2-----------0-0-0-0--1--------
  --pm-            --pm-       --pm-           --pm---


Verses

E----------------------------------------------------------------
B----------------------------------------------------------------
G----------------------------------------------------------------
D-4--4-------7--7-------2--2-------4--4--------------------------
A-4--4-------7--7-------2--2-------4--4--------------------------
E-2--2-------5--5-------0--0-------2--2--------------------------

Chorus

E--------------------------------------------------------------------------
B--------------------------------------------------------------------------
G--7-7-7-7-7-7-7-7---------------------6-6-6-6-6-6-6-6---------------------
D--7-7-7-7-7-7-7-7---7-7-7-7-7-7-7-7---6-6-6-6-6-6-6-6---4-4-4-4-4-4-4-4---
A--5-5-5-5-5-5-5-5---7-7-7-7-7-7-7-7---4-4-4-4-4-4-4-4---4-4-4-4-4-4-4-4---
E--------------------5-5-5-5-5-5-5-5---------------------2-2-2-2-2-2-2-2---

Bridge

E-----------------------------------------------------------
B-----------------------------------------------------------
G------------------------------------------------7-7-7------
D-4-4-4-4--4-4-4-2--7-7-7-(2)--4-4-4-4--4-4-4-2--7-7-7------
A-4-4-4-4--4-4-4-2--7-7-7-(2)--4-4-4-4--4-4-4-2--5-5-5------
E-0h2-2-2--0h2-2-0--5-5-5-(0)--0h2-2-2--0h2-2-0-------------


Guitar 1 plays intro while guitar 2 plays solo


Solo (timing is not shown so listen when to play notes)

E-2 / 14--14-12----12--------------------------------------------14-12---16b--16-14---
B---------------14----14-12-10------12-10-10------12-10---10--12b------14-----------16
G------------------------------11-9----------11-9-------9-----------------------------
D-------------------------------------------------------------------------------------
A-------------------------------------------------------------------------------------
E-------------------------------------------------------------------------------------

E-16-14--------14---14---14-17-14----14---14---14----12---12---12---16---16---16-16b^-
B-------16--17b--17b--17b---------17b--17b--17b---15b--15b--15b--19b--19b--19b--------
G-------------------------------------------------------------------------------------
D-------------------------------------------------------------------------------------
A-------------------------------------------------------------------------------------
E-------------------------------------------------------------------------------------

Ending:

E---------------------------------------------------------
B---------------------------------------------------------
G--------------2------------------------------------------
D--4-4-4-------2--2-2---3---2-2---3---2-2--3--2-2---------
A--4-4-4--0h2--0--2-2---3---2-2---3---2-2--3--2-2---------
E--2-2-2----------0-0---1---0-0---1---0-0--1--0-0---------
   --pm-          -pm-      -pm-     -pm-
Song Structure:

Intro
Verse
Chorus
Verse
Chorus
Bridge
Solo
Chorus
Bridge
Ending

Comments to kyle3d@hotmail.com

============================================================================

Song-Possibilities
Band-Weezer
Album-Maladroit

This song is played pretty easy in EADGBE tuning.It is from the Cd Maladroit that has
recently came out, it is a great Cd. The hardest part of this song is the opening solo
but it sounds great. Good Luck!

Intro

E--------------------------
B--------------------------
G-444444------444444-------
D-444444-4444-444444-4444--
A-666666-4444-666666-4444--
E--------6666--------6666--

Solo 1

E-------15-17b-17-15-13----------------------------------
B-13-15--------------15-13-15-13b--13h16b16b-15-13-------
G--------------------------------15---------------15b-----
D--------------------------------------------------------
A--------------------------------------------------------
E--------------------------------------------------------

Verse

E-----------------------------------------------------------
B-----------------------------------------------------------
G--------555555-777777----------------555555-777777777777---
D-555555-555555-777777-555555--555555-555555-777777777777---
A-555555-333333-555555-555555--555555-333333-555555555555---
E-333333---------------333333--333333-----------------------

Pre-Chorus

E-------------------------------------
B-------------------------------------
G-5555555555555555-7777777777777777---  2x
D-5555555555555555-7777777777777777---
A-3333333333333333-5555555555555555---
E-------------------------------------

Verse

E-----------------------------------------------------------
B-----------------------------------------------------------
G--------555555-777777----------------555555-777777777777---
D-555555-555555-777777-555555--555555-555555-777777777777---
A-555555-333333-555555-555555--555555-333333-555555555555---
E-333333---------------333333--333333-----------------------

Pre-Chorus

E-------------------------------------
B-------------------------------------
G-5555555555555555-7777777777777777---  2x
D-5555555555555555-7777777777777777---
A-3333333333333333-5555555555555555---
E-------------------------------------

Chorus

E---------------------------------------------
B---------------------------------------------
G-444444--------444444--------888888-999999---
D-444444-444444-444444-444444-888888-999999---
A-666666-444444-666666-444444-666666-777777---
E--------666666--------666666-----------------

Solo 2

E---------------------------------------------------------
B-8-8-7-8-6b-8-8-8-10-8b-10-12-12-12-12h13-12b-15-13-12-10
G----9----------------------------------------------------
D---------------------------------------------------------
A---------------------------------------------------------
E---------------------------------------------------------

E---------------------------
B-19-17-16-14b-17-15-14-12--
G---------------------------
D---------------------------
A---------------------------
E---------------------------

Pre-Chorus

E-------------------------------------
B-------------------------------------
G-5555555555555555-7777777777777777---  2x
D-5555555555555555-7777777777777777---
A-3333333333333333-5555555555555555---
E-------------------------------------

Chorus

E--------------------------------------------
B--------------------------------------------
G-444444--------444444--------888888-999999--
D-444444-444444-444444-444444-888888-999999--
A-666666-444444-666666-444444-666666-777777--
E--------666666--------666666----------------

Outro

E-----------------------------------------------------
B-----------------------------------------------------
G--------55555555----------77777777----------99999999-
D-555555-55555555-77777777-77777777-99999999-99999999-
A-555555-33333333-77777777-55555555-99999999-77777777-
E-333333----------55555555----------77777777----------

E---------------------------------------------------------
B---------------------------------------------------------
G-5555555555-7777777777-12-12-12-12-12-12-12-12-12-12-8---
D-5555555555-7777777777-12-12-12-12-12-12-12-12-12-12-8-8-
A-3333333333-5555555555-10-10-10-10-10-10-10-10-10-10-6-8-
E-------------------------------------------------------


============================================================================


Verse-
Guitar 1-
   A5     F#5 E5           A5                   F#5      E5              A5
e-------------------------------------------------------------------------------
b-------------------------------------------------------------------------------
g----7-6-4-2---------------------------7-6---4--2-------------------------------
d--7----------------4----2----------7-------------------4--------2-----------7--
a--7----------------4----2-2-----0--7-------------------4--------2-----------7--
E--5----------------2----0---0h2----5-------------------2--------0-----------5--
   Take a listen, around you...    all the people that crowd around in your house
 
                    F#5 E5        D5  E5  A5
e-------------------------------------------------------------
b-------------------------------------------------------------
g--7--6---4---2------------------------------------7---9------
d-------------------------4---2--------------------7---9---7---
a-------------------------4---2--------------------5---7---7---
E-------------------------2---0----------------------------5---
  They've been wanting to kill you in your sleep...
Guitar 2-                                                       e----5---5---5---5-
                                                                b-5h7-5h7-5h7-5h7--
                                                                g------------------
                                                                d------------------
                                                                a------------------
                                                                E------------------



Verse2 - (same guitar as 1st verse)
Take a load off, and bow down
to the others, who love to call you their names
they've been wanting to kill you in your sleep


Chorus-
   A5                                   B5                        E5
e---------------------------------------------------------------------------
b---------------------------------------------------------------------------
g---7--------------------------------------------------------------9--------
d---7------------------------------------9-------------------------9--------
a---5------------------------------------9-------------------------7--------
E----------------------------------------7----------------------------------
   And all the bull that people sling... It doesn't matter what they sling...
     A5             E5    D5
e----------------------------------------------
b----------------------------------------------
g-------------------9------7-------------------
d-----7-------------9------7-------------------
a-----7-------------7------5-------------------
E-----5----------------------------------------
  So jump out, jump out get your groove on
   A5           E5   D5
e----------------------------------------------
b----------------------------------------------
g----------------9---7-------------------------
d---7------------9---7-------------------------
a---7------------7---5-------------------------
E---5------------------------------------------
   This song is for you, so come on
   A5         E5      D5             A5 
e----------------------------------------------
b----------------------------------------------
g--------------9------7------------------------
d--7-----------9------7---------------7--------
a--7-----------7------5---------------7--------
E--5----------------------------------5--------
  Get out your house girl, and give me a kiss...



e----------------
b----------------
g----------------
d--7--5--4--5----
a--7--5--4--5----
E--5--3--2--3----





               pm................................................................................. 
-5-5-5-444-2-------------------------------------------------------------------------------------- 
---------------2h3h5-3h5h7-5h7h9--7h9h10--9h10h12--10h12h14--12h14h15--14h15h17--15h17h19--17h19-- 
-------------------------------------------------------------------------------------------------- 
-------------------------------------------------------------------------------------------------- 
-------------------------------------------------------------------------------------------------- 
-------------------------------------------------------------------------------------------------- 
                                                                       
-----16vvv---14-16-17---16-17-19--17-19---19b(20)r19-
-----------------------------------------------------
-----------------------------------------------------
-----------------------------------------------------
-----------------------------------------------------
-----------------------------------------------------


--19p17-----17----------------------------------------------------------------------------- 
---------19----19--17-19p17-----17---------------------------------------------------------
-----------------------------18----18--16--18p16----16-------------------------------------  
-------------------------------------------------19----19--16-----16----------------------- 
---------------------------------------------------------------19----19--16----16---------- 
----------------------------------------------------------------------------19----19---17--


============================================================================


-------------------------------------------------------------------------------
			     December - Weezer
-------------------------------------------------------------------------------

Tabbed by: cjpm105
Email: cjpm105@yahoo.com
Tuning: Guitar 1 - Standard.
        Guitar 2 - Standard.

Key
/  slide up
\  slide down
~  sustain

When asterisks separate two sets of lines, Guitar 2 follows Guitar 1 and they are played 
simultaneously. 

Intro
e|--------------------------------------------------------------------------|
B|--------------------------------------------------------------------------|
G|--------------------------------------------------------------------------|
D|--5--5--5--5--5--5--5--5--5--5--5--5--5--5--5--5--5--5--5--5--5--5--5--5--|
A|--5--5--5--5--5--5--3--3--3--3--3--3--5--5--5--5--5--5--3--3--3--3--3--3--|
E|--3--3--3--3--3--3--3--3--3--3--3--3--3--3--3--3--3--3--3--3--3--3--3--3--|
*****************************************************************************
e|--------------------------------------------------------------------------|
B|---------------8-----------------10----------------8-------------------8--|
G|--------------------------------------------------------------------------|
D|--10--9-----9-------9--10----10-------10--9-----9-------9--10---10--7-----|
A|--------------------------------------------------------------------------|
E|--------------------------------------------------------------------------|

Verse
e|--------------------------------------------------------------------------|
B|--------------------------------------------------------------------------|
G|--------------------------------------------------------------------------|
D|--5--5--5--5--5--5--5--5--5--5--5--5--7--7--7--7--7--7--7--7--7--7--7--7--|
A|--5--5--5--5--5--5--3--3--3--3--3--3--7--7--7--7--7--7--5--5--5--5--5--5--|
E|--3--3--3--3--3--3--3--3--3--3--3--3--5--5--5--5--5--5--5--5--5--5--5--5--|

e|--------------------------------------------------------------------------|
B|--------------------------------------------------------------------------|
G|--------------------------------------------------------------------------|
D|--5--5--5--5--5--5--5--5--5--5--5--5--7--7--7--7--7--7--7--7--7--7--7--7--|
A|--5--5--5--5--5--5--3--3--3--3--3--3--7--7--7--7--7--7--5--5--5--5--5--5--|
E|--3--3--3--3--3--3--3--3--3--3--3--3--5--5--5--5--5--5--5--5--5--5--5--5--|
*****************************************************************************
e|--------------------------------------------------------------------------|
B|--------------------------------------------------------------------------|
G|------------------------------------------------12-11-9-11~------11~------|
D|--------------------------------------10~---------------------------------|
A|--------------------------------------------------------------------------|
E|--------------------------------------------------------------------------|

Pre-chorus
e|--------------------------------------------------------------------------|
B|--------------------------------------------------------------------------|
G|--------------------------------------------------------------------------|
D|--9--9--9--9--9--9--9--9--9--9--9--9--9--9--9--9--9--9--9--9--9--9--9--9--|
A|--9--9--9--9--9--9--9--9--9--9--9--9--7--7--7--7--7--7--7--7--7--7--7--7--|
E|--7--7--7--7--7--7--7--7--7--7--7--7--7--7--7--7--7--7--7--7--7--7--7--7--|
*****************************************************************************
e|--------------------------------------------------------------------------|
B|--------------------------------------------------------------------------|
G|---------------------11------------------------------12-----11------------|
D|--------------12----------12--10--9---------12-10-9-------9---------------|
A|--------------------------------------------------------------------------|
E|--------------------------------------------------------------------------|

e|--------------------------------------------------------------------------|
B|--------------------------------------------------------------------------|
G|--------------------------------------------------------------------------|
D|--7--7--7--7--7--7--7--7--7--7--7--7--7--7--7--7--7--7--7--7--7--7--7--7--|
A|--7--7--7--7--7--7--7--7--7--7--7--7--5--5--5--5--5--5--5--5--5--5--5--5--|
E|--5--5--5--5--5--5--5--5--5--5--5--5--5--5--5--5--5--5--5--5--5--5--5--5--|
*****************************************************************************
e|--------------------------------------------------------------------------|
B|--------------------------------------------------------------------------|
G|------------------------9------12-----12--11--9--11--9--------------------|
D|----------------10--------------------------------------12--12----10------|
A|--------------------------------------------------------------------------|
E|--------------------------------------------------------------------------|

Chorus
e|--------------------------------------------------------------------------|
B|--------------------------------------------------------------------------|
G|--------------------------------------------------------------------------|
D|--5--5--5--5--5--5--5--5--5--5--5--5--7--7--7--7--7--7--7--7--7--7--7--7--|
A|--5--5--5--5--5--5--3--3--3--3--3--3--7--7--7--7--7--7--5--5--5--5--5--5--|
E|--3--3--3--3--3--3--3--3--3--3--3--3--5--5--5--5--5--5--5--5--5--5--5--5--|
*****************************************************************************
e|---------------------------------8----------------------------------------|
B|---------------8-----------------------------------10---------------------|
G|---------------------------------------------------------------------11---|
D|--10--9-----9-------9--10----10-------10--9-----9-------9--10-----9-------|
A|--------------------------------------------------------------------------|
E|--------------------------------------------------------------------------|

e|--------------------------------------------------------------------------|
B|--------------------------------------------------------------------------|
G|--------------------------------------------------------------------------|
D|--5--5--5--5--5--5--5--5--5--5--5--5--5--5--5--5--5--5--5--5--5--5--5--5--|
A|--5--5--5--5--5--5--3--3--3--3--3--3--5--5--5--5--5--5--5--5--5--5--5--5--|
E|--3--3--3--3--3--3--3--3--3--3--3--3--3--3--3--3--3--3--3--3--3--3--3--3--|
*****************************************************************************
e|--------------------------------------------------------------------------|
B|-----------------------------------------------10-------------------------|
G|--12--------------9------9----------12~-------------12~-------------------|
D|--------9--10--12-----------12--10---9~--------------9~-------------------|
A|--------------------------------------------------------------------------|
E|--------------------------------------------------------------------------|

Second Verse
e|--------------------------------------------------------------------------|
B|--------------------------------------------------------------------------|
G|--------------------------------------------------------------------------|
D|--5--5--5--5--5--5--5--5--5--5--5--5--7--7--7--7--7--7--7--7--7--7--7--7--|
A|--5--5--5--5--5--5--3--3--3--3--3--3--7--7--7--7--7--7--5--5--5--5--5--5--|
E|--3--3--3--3--3--3--3--3--3--3--3--3--5--5--5--5--5--5--5--5--5--5--5--5--|
*****************************************************************************
e|---------------------------------8----------------------------------------|
B|---------------8-----------------------------------10---------------------|
G|---------------------------------------------------------------------11---|
D|--10--9-----9-------9--10----10-------10--9-----9-------9--10-----9-------|
A|--------------------------------------------------------------------------|
E|--------------------------------------------------------------------------|

e|--------------------------------------------------------------------------|
B|--------------------------------------------------------------------------|
G|--------------------------------------------------------------------------|
D|--5--5--5--5--5--5--5--5--5--5--5--5--7--7--7--7--7--7--7--7--7--7--7--7--|
A|--5--5--5--5--5--5--3--3--3--3--3--3--7--7--7--7--7--7--5--5--5--5--5--5--|
E|--3--3--3--3--3--3--3--3--3--3--3--3--5--5--5--5--5--5--5--5--5--5--5--5--|
*****************************************************************************
e|---------------------------------8----------------------------------------|
B|---------------8-----------------------------------10---------------------|
G|---------------------------------------------------------------------11---|
D|--10--9-----9-------9--10----10-------10--9-----9-------9--10-----9-------|
A|--------------------------------------------------------------------------|
E|--------------------------------------------------------------------------|

Pre-chorus
e|--------------------------------------------------------------------------|
B|--------------------------------------------------------------------------|
G|--------------------------------------------------------------------------|
D|--9--9--9--9--9--9--9--9--9--9--9--9--9--9--9--9--9--9--9--9--9--9--9--9--|
A|--9--9--9--9--9--9--9--9--9--9--9--9--7--7--7--7--7--7--7--7--7--7--7--7--|
E|--7--7--7--7--7--7--7--7--7--7--7--7--7--7--7--7--7--7--7--7--7--7--7--7--|
*****************************************************************************
e|--------------------------------------------------------------------------|
B|--------------------------------------------------------------------------|
G|---------------------11------------------------------12-----11------------|
D|--------------12----------12--10--9---------12-10-9-------9---------------|
A|--------------------------------------------------------------------------|
E|--------------------------------------------------------------------------|

e|--------------------------------------------------------------------------|
B|--------------------------------------------------------------------------|
G|--------------------------------------------------------------------------|
D|--7--7--7--7--7--7--7--7--7--7--7--7--7--7--7--7--7--7--7--7--7--7--7--7--|
A|--7--7--7--7--7--7--7--7--7--7--7--7--5--5--5--5--5--5--5--5--5--5--5--5--|
E|--5--5--5--5--5--5--5--5--5--5--5--5--5--5--5--5--5--5--5--5--5--5--5--5--|
*****************************************************************************
e|--------------------------------------------------------------------------|
B|--------------------------------------------------------------------------|
G|------------------------9------12-----12--11--9--11--9--------------------|
D|----------------10--------------------------------------12--12----10------|
A|--------------------------------------------------------------------------|
E|--------------------------------------------------------------------------|

Second chorus
e|--------------------------------------------------------------------------|
B|--------------------------------------------------------------------------|
G|--------------------------------------------------------------------------|
D|--5--5--5--5--5--5--5--5--5--5--5--5--7--7--7--7--7--7--7--7--7--7--7--7--|
A|--5--5--5--5--5--5--3--3--3--3--3--3--7--7--7--7--7--7--5--5--5--5--5--5--|
E|--3--3--3--3--3--3--3--3--3--3--3--3--5--5--5--5--5--5--5--5--5--5--5--5--|
*****************************************************************************
e|---------------------------------8----------------------------------------|
B|---------------8-----------------------------------10---------------------|
G|---------------------------------------------------------------------11---|
D|--10--9-----9-------9--10----10-------10--9-----9-------9--10-----9-------|
A|--------------------------------------------------------------------------|
E|--------------------------------------------------------------------------|

e|--------------------------------------------------------------------------|
B|--------------------------------------------------------------------------|
G|--------------------------------------------------------------------------|
D|--5--5--5--5--5--5--5--5--5--5--5--5--5--5--5--5--5--5--5--5--5--5--5--5--|
A|--5--5--5--5--5--5--3--3--3--3--3--3--5--5--5--5--5--5--5--5--5--5--5--5--|
E|--3--3--3--3--3--3--3--3--3--3--3--3--3--3--3--3--3--3--3--3--3--3--3--3--|
*****************************************************************************
e|--------------------------------------------------------------------------|
B|-----------------------------------------------10-------------------------|
G|--12--------------9------9----------12~-------------12~-------------------|
D|--------9--10--12-----------12--10---9~--------------9~-------------------|
A|--------------------------------------------------------------------------|
E|--------------------------------------------------------------------------|

Bridge
e|--------------------------------------------------------------------------|
B|--------------------------------------------------------------------------|
G|--------------------------------------------------------------------------|
D|--5--5--5--5--5--5--5--5--5--5--5--5--5--5--5--5--5--5--5--5--5--5--5--5--|
A|--3--3--3--3--3--3--3--3--3--3--3--3--3--3--3--3--3--3--3--3--3--3--3--3--|
E|--3--3--3--3--3--3--3--3--3--3--3--3--3--3--3--3--3--3--3--3--3--3--3--3--|
*****************************************************************************
e|--------------------------------------------------------------------------|
B|--------------------------------------------------------------------------|
G|--12---------------9-------------12-------12------------------------------|
D|-----12-9-9-10-12-----9-9-10-12-----9--9-----9--9---12-9----------9-9~----|
A|---------------------------------------------------------12-10-12---------|
E|--------------------------------------------------------------------------|

e|--------------------------------------------------------------------------|
B|--------------------------------------------------------------------------|
G|--------------------------------------------------------------------------|
D|--5--5--5--5--5--5--5--5--5--5--5--5--5--5--5--5--5--5--5--5--5--5--5--5--|
A|--5--5--5--5--5--5--5--5--5--5--5--5--5--5--5--5--5--5--5--5--5--5--5--5--|
E|--3--3--3--3--3--3--3--3--3--3--3--3--3--3--3--3--3--3--3--3--3--3--3--3--|
*****************************************************************************
e|--------------------------------------------------------------------------|
B|--------------------------------------------------------------------------|
G|--------------------------------------------------------------------------|
D|-----------------------------------------9-9---------9-9-------------9----|
A|-----------------------------------10-12-----12-10-------12-10-10-12---12-|
E|--------------------------------------------------------------------------|

e|--------------------------------------------------------------------------|
B|--------------------------------------------------------------------------|
G|--------------------------------------------------------------------------|
D|--7--7--7--7--7--7--7--7--7--7--7--7--5--5--5--5--5--5--5--5--5--5--5--5~-|
A|--5--5--5--5--5--5--5--5--5--5--5--5--5--5--5--5--5--5--5--5--5--5--5--5~-|
E|--5--5--5--5--5--5--5--5--5--5--5--5--3--3--3--3--3--3--3--3--3--3--3--3~-|
*****************************************************************************
e|--------------------------------------------------------------------------|
B|--------------------------------------------------------------------------|
G|--------------------------------------------------------------------------|
D|--------------------------------12----9------------------------9----------|
A|--------------------------10-------------12--10-------------------12--10~-|
E|---------------------------------------------------12----10---------------|

Solo
e|------------------------------------------------------------------------|
B|------------------------------------------------------------------------|
G|------------------------------------------------------------------------|
D|--12~---\9---------------/14~--------12--10--12~----14--16--16---17-----|
A|--------------------------------------------------------------------17--|
E|------------------------------------------------------------------------|
***************************************************************************
e|-----------------------------------------------10-----------------------|
B|---------------------13~----------10~-------------12~-------------------|
G|-----------12~---\9-----------------------------------------------------|
D|------------------------------------------------------------------------|
A|------------------------------------------------------------------------|
E|------------------------------------------------------------------------|

e|----------------------------------------------------|
B|----------------------------------------------------|
G|--16---17-14-----16---17-14------14-14-14-14-14-14--|
D|--------------17-------------17---------------------|
A|----------------------------------------------------|
E|----------------------------------------------------|
*******************************************************
e|----------------------------------------------------|
B|---------------------------------15~----------------|
G|--16---17-14-----16---17-14-------------------------|
D|--------------17-------------17---------------------|
A|----------------------------------------------------|
E|----------------------------------------------------|

Pre-chorus
e|--------------------------------------------------------------------------|
B|--------------------------------------------------------------------------|
G|--------------------------------------------------------------------------|
D|--9--9--9--9--9--9--9--9--9--9--9--9--9--9--9--9--9--9--9--9--9--9--9--9--|
A|--9--9--9--9--9--9--9--9--9--9--9--9--7--7--7--7--7--7--7--7--7--7--7--7--|
E|--7--7--7--7--7--7--7--7--7--7--7--7--7--7--7--7--7--7--7--7--7--7--7--7--|
*****************************************************************************
e|--------------------------------------------------------------------------|
B|--------------------------------------------------------------------------|
G|---------------------11------------------------------12-----11------------|
D|--------------12----------12--10--9---------12-10-9-------9---------------|
A|--------------------------------------------------------------------------|
E|--------------------------------------------------------------------------|

e|--------------------------------------------------------------------------|
B|--------------------------------------------------------------------------|
G|--------------------------------------------------------------------------|
D|--7--7--7--7--7--7--7--7--7--7--7--7--7--7--7--7--7--7--7--7--7--7--7--7--|
A|--7--7--7--7--7--7--7--7--7--7--7--7--5--5--5--5--5--5--5--5--5--5--5--5--|
E|--5--5--5--5--5--5--5--5--5--5--5--5--5--5--5--5--5--5--5--5--5--5--5--5--|
*****************************************************************************
e|--------------------------------------------------------------------------|
B|--------------------------------------------------------------------------|
G|------------------------9------12-----12--11--9--11--9--------------------|
D|----------------10--------------------------------------12--12----10------|
A|--------------------------------------------------------------------------|
E|--------------------------------------------------------------------------|

Final chorus
e|--------------------------------------------------------------------------|
B|--------------------------------------------------------------------------|
G|--------------------------------------------------------------------------|
D|--5--5--5--5--5--5--5--5--5--5--5--5--7--7--7--7--7--7--7--7--7--7--7--7--|
A|--5--5--5--5--5--5--3--3--3--3--3--3--7--7--7--7--7--7--5--5--5--5--5--5--|
E|--3--3--3--3--3--3--3--3--3--3--3--3--5--5--5--5--5--5--5--5--5--5--5--5--|
*****************************************************************************
e|---------------------------------8----------------------------------------|
B|---------------8-----------------------------------10---------------------|
G|---------------------------------------------------------------------11---|
D|--10--9-----9-------9--10----10-------10--9-----9-------9--10-----9-------|
A|--------------------------------------------------------------------------|
E|--------------------------------------------------------------------------|

e|--------------------------------------------------------------------------|
B|--------------------------------------------------------------------------|
G|--------------------------------------------------------------------------|
D|--5--5--5--5--5--5--5--5--5--5--5--5--5--5--5--5--5--5--5--5--5--5--5--5--|
A|--5--5--5--5--5--5--3--3--3--3--3--3--5--5--5--5--5--5--5--5--5--5--5--5--|
E|--3--3--3--3--3--3--3--3--3--3--3--3--3--3--3--3--3--3--3--3--3--3--3--3--|
*****************************************************************************
e|--------------------------------------------------------------------------|
B|-----------------------------------------------10-------------------------|
G|--12--------------9------9----------12~-------------12~-------------------|
D|--------9--10--12-----------12--10---9~--------------9~-------------------|
A|--------------------------------------------------------------------------|
E|--------------------------------------------------------------------------|

Outro
e|--------------------------------------------------------------------------|
B|--------------------------------------------------------------------------|
G|--------------------------------------------------------------------------|
D|--5--5--5--5--5--5--5--5--5--5--5--5--7--7--7--7--7--7--7--7--7--7--7--7--|
A|--5--5--5--5--5--5--3--3--3--3--3--3--7--7--7--7--7--7--5--5--5--5--5--5--|
E|--3--3--3--3--3--3--3--3--3--3--3--3--5--5--5--5--5--5--5--5--5--5--5--5--|
*****************************************************************************
e|---------------------------------8----------------------------------------|
B|---------------8-----------------------------------10---------------------|
G|---------------------------------------------------------------------11---|
D|--10--9-----9-------9--10----10-------10--9-----9-------9--10-----9-------|
A|--------------------------------------------------------------------------|
E|--------------------------------------------------------------------------|

e|------------------------------------------------------------------------|
B|------------------------------------------------------------------------|
G|------------------------------------------------------------------------|
D|--5--5-5-5-5-5--5-5-5-5-5--5-5-5-5-5--5-5-5-5-5--5-5-5-5-5--5-5--7--5~--|
A|--5--5-5-5-5-5--5-5-5-5-3--3-3-3-3-3--3-3-3-3-5--5-5-5-5-5--5-5--7--5~--|
E|--3--3-3-3-3-3--3-3-3-3-3--3-3-3-3-3--3-3-3-3-3--3-3-3-3-3--3-3--5--3~--|

Related for Maladroit tab