Song name
# A B C D E F G H I J K L M N O P Q R S T U V W X Y Z

Weezer - Take Control tab

-------------------------------------------------------------------------------
			     Take Control - Weezer
-------------------------------------------------------------------------------
Tabbed by: JWard
Email:jward_rocks_alot@yahoo.com

Tuning: Standard

This is a pretty good song from a pretty good album from a great band. I like this song 
but there was only one tab of it and it was bad so I decided to do one. This is my first 
so give me feedback and stuff.

Intro

e|-----------------------------------------|
B|-----------------------------------------|
G|---------------------------------4-------|
D|-6-6--4-6--4-6--4-6--4-6--4-6--4-4-6-4-5-|
A|-6-6--4-6--4-6--4-6--4-6--4-6--4-2-6-4-5-|
E|-4-4--2-4--2-4--2-4--2-4--2-4--2---4-2-3-|


e|-----------------------------------------|
B|-----------------------------------------|
G|---------------------------------4-------|
D|-6-6--4-6--4-6--4-6--4-6--4-6--4-4-6-4-5-|
A|-6-6--4-6--4-6--4-6--4-6--4-6--4-2-6-4-5-|
E|-4-4--2-4--2-4--2-4--2-4--2-4--2---4-2-3-|

e|-----------------------------------------|
B|-----------------------------------------|
G|---------------------------------4-------|
D|-6-6--4-6--4-6--4-6--4-6--4-6--4-4-6-4-5-|
A|-6-6--4-6--4-6--4-6--4-6--4-6--4-2-6-4-5-|
E|-4-4--2-4--2-4--2-4--2-4--2-4--2---4-2-3-|

Verse 1
(Palm Muted)

e|-----------------------------------------|
B|-----------------------------------------|
G|---------------------------------4-------|
D|-6-6--4-6--4-6--4-6--4-6--4-6--4-4-6-4-5-|
A|-6-6--4-6--4-6--4-6--4-6--4-6--4-2-6-4-5-|
E|-4-4--2-4--2-4--2-4--2-4--2-4--2---4-2-3-|

e|-----------------------------------------|
B|-----------------------------------------|
G|---------------------------------4-------|
D|-6-6--4-6--4-6--4-6--4-6--4-6--4-4-6-4-5-|
A|-6-6--4-6--4-6--4-6--4-6--4-6--4-2-6-4-5-|
E|-4-4--2-4--2-4--2-4--2-4--2-4--2---4-2-3-|

e|-----------------------------------------|
B|-----------------------------------------|
G|---------------------------------4-------|
D|-6-6--4-6--4-6--4-6--4-6--4-6--4-4-6-4-5-|
A|-6-6--4-6--4-6--4-6--4-6--4-6--4-2-6-4-5-|
E|-4-4--2-4--2-4--2-4--2-4--2-4--2---4-2-3-|

e|-----------------------------------------|
B|-----------------------------------------|
G|---------------------------------4-------|
D|-6-6--4-6--4-6--4-6--4-6--4-6--4-4-6-----|
A|-6-6--4-6--4-6--4-6--4-6--4-6--4-2-6-----|
E|-4-4--2-4--2-4--2-4--2-4--2-4--2---4-----|

Chorus

e|---------------------------------------------------------------------------|
B|---------------------------------------------------------------------------|
G|-44444444-66666666-44444444-66666666-------------------4-4-44--------------|
D|-44444444-66666666-44444444-66666666-66666666-44444444-4-4-44-8-9-8-9-8-6--|
A|-22222222-44444444-22222222-44444444-66666666-44444444-2-2-22-8-9-8-9-8-6--|
E|-------------------------------------44444444-22222222--------6-7-6-7-6-4--|

Interlude

e|-----------------------------------------|
B|-----------------------------------------|
G|---------------------------------4-------|
D|-6-6--4-6--4-6--4-6--4-6--4-6--4-4-6-4-5-|
A|-6-6--4-6--4-6--4-6--4-6--4-6--4-2-6-4-5-|
E|-4-4--2-4--2-4--2-4--2-4--2-4--2---4-2-3-|

Verse 2

Chorus

Bridge

e|---------------------------------------------|
B|---------------------------------------------|
G|----------------------------4-44-44----------|
D|-2-22-4-4-2-22-4-4-2-22-4-4-4-44-44-4-44-4-4-|
A|-2-22-4-4-2-22-4-4-2-22-4-4-2-22-22-4-44-4-4-|
E|-0-00-2-2-0-00-2-2-0-00-2-2---------2-22-2-2-|

e|-----------------------------------------|
B|-----------------------------------------|
G|---------------------------------4-------|
D|-6-6--4-6--4-6--4-6--4-6--4-6--4-4-6-4-5-|
A|-6-6--4-6--4-6--4-6--4-6--4-6--4-2-6-4-5-|
E|-4-4--2-4--2-4--2-4--2-4--2-4--2---4-2-3-|

Solo

e|-------------------------------------------------------------|
B|-------------------------------------------------------------|
G|-------------------------------------------------------------|
D|-13-9----9-13-9----9-----------------------------------------|
A|------13--------13---13-11-13-11-9---------9----9----9-11-11-|
E|-----------------------------------11-11-----11---11---------|

e|---------------------------------------------------------------------------|
B|---------------------------------------------------------------------------|
G|------------------------------------------------------------11-------------|
D|------------------------11-9-11---13-11-13---14-13-14-13-11----14-13-------|
A|-13-11-13-11-13-14-14------------------------------------------------------|
E|---------------------------------------------------------------------------|

e|------------------------------------------------------------|
B|------------------------------------------------------------|
G|------------------------------------------------------------|
D|-14-13-11-13-11-9-11-9--------------------------------------|
A|-----------------------13-14-13-11-13-14-11--13-14-11--9-11-|
E|------------------------------------------------------------|

Chorus

Bridge

Outro

e|-----------------------------------------|
B|-----------------------------------------|
G|---------------------------------4-------|
D|-6-6--4-6--4-6--4-6--4-6--4-6--4-4-6-4-5-|
A|-6-6--4-6--4-6--4-6--4-6--4-6--4-2-6-4-5-|
E|-4-4--2-4--2-4--2-4--2-4--2-4--2---4-2-3-|

e|-----------------------------------------|
B|-----------------------------------------|
G|---------------------------------4-------|
D|-6-6--4-6--4-6--4-6--4-6--4-6--4-4-6-4-5-|
A|-6-6--4-6--4-6--4-6--4-6--4-6--4-2-6-4-5-|
E|-4-4--2-4--2-4--2-4--2-4--2-4--2---4-2-3-|

e|-----------------------------------------|
B|-----------------------------------------|
G|---------------------------------4-------|
D|-6-6--4-6--4-6--4-6--4-6--4-6--4-4-6-4-5-|
A|-6-6--4-6--4-6--4-6--4-6--4-6--4-2-6-4-5-|
E|-4-4--2-4--2-4--2-4--2-4--2-4--2---4-2-3-|

e|-----------------------------------------|
B|-----------------------------------------|
G|---------------------------------4-------|
D|-6-6--4-6--4-6--4-6--4-6--4-6--4-4-6-----|
A|-6-6--4-6--4-6--4-6--4-6--4-6--4-2-6-----|
E|-4-4--2-4--2-4--2-4--2-4--2-4--2---4-----|

| /  slide up
| \  slide down
| h  hammer-on
| p  pull-off
| ~  vibrato
| +  harmonic
| x  Mute note
===============================================================================
Tap to rate this tab
 
# A B C D E F G H I J K L M N O P Q R S T U V W X Y Z