Song name
# A B C D E F G H I J K L M N O P Q R S T U V W X Y Z

Weezer - Better Off Alone tab

Help us improve GuitareTab! Take a short survey!
Weezer "Better Off Alone"
By: bt12483@aol.com

~=let ring
/=slide

Rhythm Guitar (Entire song except for a few parts, listen)
e|------------------------------------------------------------------|
B|------------------------------------------------------------------|
G|--------8--------------------------9------8-------13------11------|
D|-2------8-[x8]-6------4-------or---9-[x8]-8-[x8]--13-[x8]-11-[x8]-|
A|-2-[x8]-6------6-[x8]-4-[x8]-------7------6-------11-------9------|
E|-0-------------4------2-------------------------------------------|

Lead Guitar: Main Riff (repeated throughout song)
e|--------------------14-14-11-7-7-4-7-7-6/12-12-11-repeat----------|
B|-12-12-9-12-12-11-9/----------------------------------------------|
G|------------------------------------------------------------------|
D|------------------------------------------------------------------|
A|------------------------------------------------------------------|
E|------------------------------------------------------------------|
Related for Better Off Alone tab