Song name
# A B C D E F G H I J K L M N O P Q R S T U V W X Y Z

Weezer - Burndt Jamb tab

This Weezer song is pretty cool. The chorus
is my favorite. Enjoy!

Tuning:Standard (eBGDAE)

Intro(pick up and down):                       ORDER:Intro 2X
                                                     Verse1 2X
e|-4-4-4-4-4-2-2-2-2-2-6-6-6-6-6-3-3-3-3-3-|         Intro 1X
B|-2-2-2-2-2-2-2-2-2-2-4-4-4-4-4-4-4-4-4-4-|         Verse1 2X
G|-2-2-2-2-2-2-2-2-2-2-4-4-4-4-4-4-4-4-4-4-|         Chorus 1X
D|-----------------------------------------|         Intro 1X
A|-----------------------------------------|         Solo
E|-----------------------------------------|         Verse1 1X
                                                     Chorus 1X
Verse 1 (pick down and palm-mute):                   Intro 2X

e|----------------------------------------------|
B|-5-5-5-5-5-3-3-3-3-3-9-9-9-9-9-11-11-11-11-11-|
G|-5-5-5-5-5-3-3-3-3-3-9-9-9-9-9-11-11-11-11-11-|
D|-3-3-3-3-3-1-1-1-1-1-7-7-7-7-7-9--9--9--9--9--|
A|----------------------------------------------|
E|----------------------------------------------|

Chorus:

e|----------------------------------------------------------------------|
B|--------------------5B---------------------5B---------------------5B--|
G|-----------------7B---------------------7B---------------------7B-----|
D|-----7-5-7-5-7-7------------7-5-7-5-7-7------------7-5-7-5-7-7--------|
A|-0----------------------0---------------------------------------------|
E|-----------------------------------------------1----------------------|

e|----------------------------------------------|
B|--------------------5B---------------------5B-|
G|-----------------7B---------------------7B----|
D|-----7-5-7-5-7-7------------7-5-7-5-7-7-------|
A|------------------------0---------------------|
E|-3--------------------------------------------|











Tap to rate this tab
# A B C D E F G H I J K L M N O P Q R S T U V W X Y Z