Song name
# A B C D E F G H I J K L M N O P Q R S T U V W X Y Z

Weezer - Memories tab

-------------------------------------------------------------------------------
			     Memories - Weezer
-------------------------------------------------------------------------------
Tabbed by:Frank H.
Email:huib-x@hotmail.com

Tuning:EADGBe

This tab includes 2 guitars: RHYTHM GUITAR and LEAD GUITAR.

It's a pretty simple song, so I'm going to tab it as easy as posible
Intro + verse1:
_RHYTHM GUITAR_
e|------------------|-----------------| (play this part 10 times)
B|------------------|-----------------|
G|--4-4-4-4-4-4-4-4-|-9-9-9-9-9-9-9-9-|
D|--4-4-4-4-4-4-4-4-|-9-9-9-9-9-9-9-9-|
A|--2-2-2-2-2-2-2-2-|-7-7-7-7-7-7-7-7-|
E|------------------|-----------------|

Chorus:
_RHYTHM GUITAR_
e|----------------------------------|---------------------------------|Play 4 times
B|----------------------------------|---------------------------------|
G|--9-9-9-9-9-9-9-9-9-9-9-9-9-9-9-9-|-4-4-4-4-4-4-4-4-4-4-4-4-4-4-4-4-|
D|--9-9-9-9-9-9-9-9-9-9-9-9-9-9-9-9-|-4-4-4-4-4-4-4-4-4-4-4-4-4-4-4-4-|
A|--7-7-7-7-7-7-7-7-7-7-7-7-7-7-7-7-|-2-2-2-2-2-2-2-2-2-2-2-2-2-2-2-2-|
E|----------------------------------|---------------------------------|
then play this:
*The notes betwee the "()" are optional*
e|---------------|---------------------------------|
e|---------------|---------------------------------|
B|---------------|---------------------------------|
G|---------------|-4-4-4-4-4-4-4-4-4-4-4-4-4-4-4-4-|
D|-(7-6-4-6-4-2)-|-4-4-4-4-4-4-4-4-4-4-4-4-4-4-4-4-|
A|-(7-6-4-6-4-2)-|-2-2-2-2-2-2-2-2-2-2-2-2-2-2-2-2-|
E|--5-4-2-4-2-0--|---------------------------------|

verse2:
_RHYTHM GUITAR_
e|------------------|-----------------| (play this part 10 times)
B|------------------|-----------------|
G|--4-4-4-4-4-4-4-4-|-9-9-9-9-9-9-9-9-|
D|--4-4-4-4-4-4-4-4-|-9-9-9-9-9-9-9-9-|
A|--2-2-2-2-2-2-2-2-|-7-7-7-7-7-7-7-7-|
E|------------------|-----------------|

_LEAD GUITAR_         *Listen to the song for the timing*
e|-------|-------|-------| (The fourth time instead of playing notes,
B|-------|-------|-------| just slide your pick over your strings)
G|-------|-------|-------|
D|-------|-------|-------|
A|---4-2-|---4-6-|---4-2-|
E|-------|-------|-------|

Chorus:
_RHYTHM GUITAR_
e|----------------------------------|---------------------------------|Play 4 times
B|----------------------------------|---------------------------------|
G|--9-9-9-9-9-9-9-9-9-9-9-9-9-9-9-9-|-4-4-4-4-4-4-4-4-4-4-4-4-4-4-4-4-|
D|--9-9-9-9-9-9-9-9-9-9-9-9-9-9-9-9-|-4-4-4-4-4-4-4-4-4-4-4-4-4-4-4-4-|
A|--7-7-7-7-7-7-7-7-7-7-7-7-7-7-7-7-|-2-2-2-2-2-2-2-2-2-2-2-2-2-2-2-2-|
E|----------------------------------|---------------------------------|
then play this:
*The notes betwee the "()" are optional*
e|---------------|---------------------------------|
e|---------------|---------------------------------|
B|---------------|---------------------------------|
G|---------------|-4-4-4-4-4-4-4-4-4-4-4-4-4-4-4-4-|
D|-(7-6-4-6-4-2)-|-4-4-4-4-4-4-4-4-4-4-4-4-4-4-4-4-|
A|-(7-6-4-6-4-2)-|-2-2-2-2-2-2-2-2-2-2-2-2-2-2-2-2-|
E|--5-4-2-4-2-0--|---------------------------------|

Bridge:
_RHYTHM GUITAR_
e|-----------------------------------|
B|-----------------------------------|
G|--4-4-4-4-4-4-4-4-4-4-4-4-4-4-4-4--|
D|--4-4-4-4-4-4-4-4-4-4-4-4-4-4-4-4--|
A|--2-2-2-2-2-2-2-2-2-2-2-2-2-2-2-2--|
E|-----------------------------------|

Then in the slow part:
   *Let ring*
e|---------------------------|-----------------------| (Play 2 times)
B|---------------------------|-----------------------|
G|-9-------------------------|-4---------------------|
D|-9-------------------------|-4---------------------|
A|-7-------------------------|-2---------------------|
E|---------------------------|-----------------------|

Chorus:
_RHYTHM GUITAR_
e|----------------------------------|---------------------------------|Play 4 times
B|----------------------------------|---------------------------------|
G|--9-9-9-9-9-9-9-9-9-9-9-9-9-9-9-9-|-4-4-4-4-4-4-4-4-4-4-4-4-4-4-4-4-|
D|--9-9-9-9-9-9-9-9-9-9-9-9-9-9-9-9-|-4-4-4-4-4-4-4-4-4-4-4-4-4-4-4-4-|
A|--7-7-7-7-7-7-7-7-7-7-7-7-7-7-7-7-|-2-2-2-2-2-2-2-2-2-2-2-2-2-2-2-2-|
E|----------------------------------|---------------------------------|
then play this:
*The notes betwee the "()" are optional*
e|---------------|---------------------------------|
e|---------------|---------------------------------|
B|---------------|---------------------------------|
G|---------------|-4-4-4-4-4-4-4-4-4-4-4-4-4-4-4-4-|
D|-(7-6-4-6-4-2)-|-4-4-4-4-4-4-4-4-4-4-4-4-4-4-4-4-|
A|-(7-6-4-6-4-2)-|-2-2-2-2-2-2-2-2-2-2-2-2-2-2-2-2-|
E|--5-4-2-4-2-0--|---------------------------------|

************************************

| /   slide up
| \   slide down
| h   hammer-on
| p   pull-off
| ~   vibrato
| +   harmonic
| x   Mute note
| b   Bend
| pb  Pre-bend
| br  Bend release
| pbr Pre-bend release
| brb Bend release bend

************************************
Tap to rate this tab
 
# A B C D E F G H I J K L M N O P Q R S T U V W X Y Z