Song name
# A B C D E F G H I J K L M N O P Q R S T U V W X Y Z

Weezer - Crab tab

Crab by: Weezer

Tab by: Aaron Meredith

Tuning: (Standard) EADGBE

~ = let ring
/ = slide up
\ = slide down
h = hammer-on
p = pull-off


Intro:
e|----------------------------------------------------------------------|
G|----------------------------------------------------------------------|
B|--5-5-5-5-5-5-5-5--9-9-9-9-9-9-9-9--7-7-7-7-7-7-7-7--5-5-5-5-5-5-5-5--|
D|--5-5-5-5-5-5-5-5--9-9-9-9-9-9-9-9--7-7-7-7-7-7-7-7--7-7-7-7-7-7-7-7--|
A|--3-3-3-3-3-3-3-3--7-7-7-7-7-7-7-7--5-5-5-5-5-5-5-5--7-7-7-7-7-7-7-7--|
E|--3-3-3-3-3-3-3-3--7-7-7-7-7-7-7-7--5-5-5-5-5-5-5-5--5-5-5-5-5-5-5-5--|


E -----------------------------------------------------|-------(Fill)-------|
B -----------------------------------------------------|--------------------|
G 1010101010101010--7-7-7-7-7-7-7-7--9-9-9-9-9-9-9-9-9-|--------------------|
D 1010101010101010--7-7-7-7-7-7-7-7--9-9-9-9-9-9-9-9-9-|----------5--6--7---|
A -8-8-8-8-8-8-8-8--5-5-5-5-5-5-5-5--7-7-7-7-7-7-7-7-7-|-5--6--7-----------0|
E -8-8-8-8-8-8-8-8--5-5-5-5-5-5-5-5--7-7-7-7-7-7-7-7-7-|--------------------|

Intro: (Wah/Heavy Distortion)
e|-----------------------------------------------------------------|
G|-----------------------------------------------------------------|
B|-5~----5~--5~-5~-5~---4~-------------7~----7~----7~-7~-7~--5~----|
D|-----------------------------------------------------------------|
A|-----------------------------------------------------------------|
E|-----------------------------------------------------------------|


(might be 2 guitar tracks here-can be played with 1)
E -------------------------------------------------|
B -------------------------------------------------|
G --5~----5~----5~-5~----5~----5~----5~----7~--4~--|
D --7~----7~----7~-7~----7~----7~----7~----7~--6~--|
A -------------------------------------------------|
E -------------------------------------------------|

Chorus:
e|---------------------------------------------------------|
B|---------------------------------------------------------|
G|-----------10101010--7-7-7-7--9-9-9-9-1010101010101010---|
D|--7-7-7-7--10101010--7-7-7-7--9-9-9-9-1010101010101010---|
A|--7-7-7-7---8-8-8-8--5-5-5-5--7-7-7-7--8-8-8-8-8-8-8-8---|
E|--5-5-5-5---8-8-8-8--5-5-5-5--7-7-7-7--8-8-8-8-8-8-8-8---|

e ---------------------------------------------------------|
B ---------------------------------------------------------|
G ------------------101010101010101010-9-9-9-9-9-9-9-------|
D -1010101010101010-101010101010101010-9-9-9-9-9-9-9-------|
A -1010101010101010--8-8-8-8-8-8-8-8-8-7-7-7-7-7-7-7-------|
E --8-8-8-8-8-8-8-8--8-8-8-8-8-8-8-8-8-7-7-7-7-7-7-7-------|
e|---------------------------------------------------------|
B|---------------------------------------------------------|
G|-10101010-----------------------------5------------------|
D|-10101010-10101010--3-3-3-3--5-5-5-5--5-(x16)------------|
A|--8-8-8-8-10101010--3-3-3-3--5-5-5-5--3------------------|
E|--8-8-8-8--8-8-8-8--1-1-1-1--3-3-3-3--3------------------|


REPEAT CHORUS:


Verse: (Repeat Intro & Fill)


Solo: (rhythm plays Chorus part)
E|-------------------------------------------------------------|
B|-------------------------------------------------------------|
G|--5~-----------5~--------------------------/9~--7h9p7\5~-----|
D|------7---5-7------7---5-7--7--5h7p5\3~----------------------|
A|--------7------------7---------------------------------------|
D|-------------------------------------------------------------|

E -------------------------------------------------------------------------|
B -------------------------------------------------------------------------|
G -------------------/9~~~~~~~~~~---9--7\5-7/9---/12-----7-/9--7-\5--5~~~~~|
D -/7---5\3------3-------------------~~-~~~~-------------------------------|
A -------------------------------------------------------------------------|
D -------------------------------------------------------------------------|


REPEAT VERSE: (w/ Fill)


REPEAT CHORUS:

End with:
e|---------------------------------------------------------|
B|---------------------------------------------------------|
G|-10101010-----------------------------5-5-5-5-5-5-5-5~---|
D|-10101010-10101010--3-3-3-3--5-5-5-5--5-5-5-5-5-5-5-5~---|
A|--8-8-8-8-10101010--3-3-3-3--5-5-5-5--3-3-3-3-3-3-3-3~---|
E|--8-8-8-8--8-8-8-8--1-1-1-1--3-3-3-3--3-3-3-3-3-3-3-3~---|
Tap to rate this tab
 
# A B C D E F G H I J K L M N O P Q R S T U V W X Y Z