Song name
# A B C D E F G H I J K L M N O P Q R S T U V W X Y Z

Whipping Boy - Users tab

INTRO&VERSE:
Lead
E----------------------------------4----------------------------------------|
B-6666677-6666677---------6--------4----------------------------------------|
G-6666666-6666666---------6--------5----------------------------------------|
D-------------------------6-------------------------------------------------|
A---------------------------------------------------------------------------|
E---------------------------------------------------------------------------|

Rythm
E---------------------------------------------------------------------------|
B---------------------------------------------------------------------------|
G-33333333333333388888886666666---------------------------------------------|
D-33333333333333388888886666666---------------------------------------------|
A-11111111111111166666664444444---------------------------------------------|
E---------------------------------------------------------------------------|

CHORUS(heavily distorted)

E---------------------------------------------------------------------------|
B---------------------------------------------------------------------------|
G--------------33333--------------------------------------------------------|
D-55555-333333-33333-66666--------------------------------------------------|
A-55555-333333-11111-66666--------------------------------------------------|
E-22222-111111-------44444--------------------------------------------------|

Bridge
E---------------------------------------------------------------------------|
B---------------------------------------------------------------------------|
G--------------------------------555555555555-88888888-33333333-------------|
D-----------------------33333333-555555555555-88888888-33333333-------------|
A-333343333733334333377-11111111-333333333333-66666666-11111111-X2----------|
E-111121111511112111155-----------------------------------------------------|
Tap to rate this tab
# A B C D E F G H I J K L M N O P Q R S T U V W X Y Z