White Stripes - You Dont Know What Love Is You Just Do As Youre Told tab

You Don't Know What Love Is (You Just Do As You're told) - The White Stripes

--------------------------------------
Intro
--------------------------------------

   A             E          D               A
e|-----------------------0-----3---3--2-------------2----------------|
B|-----2---2--0----------------3---3--3-------0--2-----2--0----------|
G|-----2---2--2----0--1--------------------------------------2-------|
D|-------------------------------------------------------------------|
A|-------------------------------------------------------------------|
E|-------------------------------------------------------------------|


   A             E          D               A
e|-----------------------0-----3---3--2-------------2----------------|
B|-----2---2--0----------------3---3--3-------0--2-----2--0----------|
G|-----2---2--2----0--1--------------------------------------2-------|
D|-------------------------------------------------------------------|
A|-------------------------------------------------------------------|
E|-------------------------------------------------------------------|


   A                   E           D           A
e|--------2---------------------0----3---3--2----------2-------------|
B|--0--2-----2--0---------------0----3---3--3----0--2-----2--0-------|
G|-----------------2--0--1--------------------------------------2----|
D|--------------------------2----------------------------------------|
A|-------------------------------------------------------------------|
E|-------------------------------------------------------------------|


   A            E           D               A<--hold
e|-----------------------0-----3---3--2------------------------------|
B|-----2---2--0----------------3---3--3------------------------------|
G|-----2---2--2----0--1----------------------------------------------|
D|-------------------------------------------------------------------|
A|-------------------------------------------------------------------|
E|-------------------------------------------------------------------|

  
e|------------------------------------0-----------------0------------|
B|------------------------------0--2-----2--0-----0--2-----2--0------|
G|---------------------------------------------2-----------------2---|
D|-------------------------------------------------------------------|
A|-------------------------------------------------------------------|
E|-------------------------------------------------------------------|

--------------------------------------
Verse 1
--------------------------------------

  A
In some respects
 E                      D            A
I suspect you've got a respectable side

    A                      E  
When pushed and pulled and pressured

      D             E
You seldom run and hide

            A                  E 
But it's for someone elses benefit 

         C      G       A  
Not for what you wanna do

                           E
Until I realize that you've realized

         D                  A
I'm gonna say these words to you


e|----------------------|
B|--3----3--2--0--2-----|
G|-------------------2--|
D|----------------------|
A|----------------------|
E|----------------------|

--------------------------------------
Chorus
--------------------------------------

A                  E
You don't know what love is

    D             A
You do as you're told

  A               E
Just as a child of ten might act

          D         A
But you're far too old

                        E
You're not hopeless or helpless

      C       G       A
And I hate to sound cold

     E                   G
But you don't know what love is....

e|--------------------------------|
B|--------------------------------|
G|-------------------0---0--2--0--|
D|---------0---0--2---------------|
A|--0--2--------------------------|
E|--------------------------------|


A
You just do as you're told!

--------------------------------------
Intro riff
--------------------------------------


   A             E          D               A
e|-----------------------0-----3---3--2-------------2----------------|
B|-----2---2--0----------------3---3--3-------0--2-----2--0----------|
G|-----2---2--2----0--1--------------------------------------2-------|
D|-------------------------------------------------------------------|
A|-------------------------------------------------------------------|
E|-------------------------------------------------------------------|


   A             E          D               A
e|-----------------------0-----3---3--2-------------2----------------|
B|-----2---2--0----------------3---3--3-------0--2-----2--0----------|
G|-----2---2--2----0--1--------------------------------------2-------|
D|-------------------------------------------------------------------|
A|-------------------------------------------------------------------|
E|-------------------------------------------------------------------|


   A                   E           D           A
e|--------2---------------------0----3---3--2----------2-------------|
B|--0--2-----2--0---------------0----3---3--3----0--2-----2--0-------|
G|-----------------2--0--1--------------------------------------2----|
D|--------------------------2----------------------------------------|
A|-------------------------------------------------------------------|
E|-------------------------------------------------------------------|


   A            E           D               A <--hold
e|-----------------------0-----3---3--2------------------------------|
B|-----2---2--0----------------3---3--3------------------------------|
G|-----2---2--2----0--1----------------------------------------------|
D|-------------------------------------------------------------------|
A|-------------------------------------------------------------------|
E|-------------------------------------------------------------------|

--------------------------------------
Bridge
--------------------------------------

Oi!

e|-------------------------------------------------------------------|
B|-------------------------------------------------------------------|
G|-------------------------------9--9--9---5--5--5---2--2------------|
D|---2--2--2---5--5--5---7--7----9--9--9---5--5--5---2--2------------|
A|---2--2--2---5--5--5---7--7----7--7--7---3--3--3---0--0------------|
E|---0--0--0---3--3--3---5--5----------------------------------------|


e|-------------------------------------------------------------------|
B|-------------------------------------------------------------------|
G|-------------------------------9--9--9---5--5--5---2--2------------|
D|---2--2--2---5--5--5---7--7----9--9--9---5--5--5---2--2------------|
A|---2--2--2---5--5--5---7--7----7--7--7---3--3--3---0--0------------|
E|---0--0--0---3--3--3---5--5----------------------------------------|

Come on!

e|-------------------------------------------------------------------|
B|-------------------------------------------------------------------|
G|-------------------------------9--9--9---5--5--5---2--2------------|
D|---2--2--2---5--5--5---7--7----9--9--9---5--5--5---2--2---2--2--2--|
A|---2--2--2---5--5--5---7--7----7--7--7---3--3--3---0--0---2--2--2--|
E|---0--0--0---3--3--3---5--5-------------------------------0--0--0--|


e|-------------------------------------------------------------------|
B|-------------------------------------------------------------------|
G|-------------------------------9--9--9---5--5--5---2--2------------|
D|---2--2--2---5--5--5---7--7----9--9--9---5--5--5---2--2------------|
A|---2--2--2---5--5--5---7--7----7--7--7---3--3--3---0--0------------|
E|---0--0--0---3--3--3---5--5----------------------------------------|


e|------------------------------------0-----------------0------------|
B|------------------------------0--2-----2--0-----0--2-----2--0------|
G|---------------------------------------------2-----------------2---|
D|-------------------------------------------------------------------|
A|-------------------------------------------------------------------|
E|-------------------------------------------------------------------|

--------------------------------------
Verse 2 (same chords as Verse 1)
--------------------------------------

I can see your man

Cant help but win

Any problems that may arise

But in his mind there can be no sin 

If you never criticize

You just keep on repeating

All those empty I love you's

Until you say you deserve better

I'm gonna lay right into you

e|---------------------------|
B|-3---3--2--0--2------------|
G|-----------------2---------|<-- use a killswitch to get that
D|---------------------------|    cool affect for the last note
A|---------------------------|
E|---------------------------|

--------------------------------------
Chorus
--------------------------------------


A                  E
You don't know what love is

    D             A
You do as you're told

  A               E
Just as a child of ten might act

          D         A
But you're far too old

                        E
You're not hopeless or helpless

      C       G       A
And I hate to sound cold

     E                   G
But you don't know what love is

    E                   G
No you don't know what love is

    E                    G
No you don't know what love is

                      A
You just do as you're told!

--------------------------------------

The Guitar solo, sadly I cant work out because
I don't have whammy pedal but when I play it I
just improvise around the Verse chords in the
key of A

--------------------------------------
Ending / Outro
--------------------------------------

  A
  One, two, three, four
                                       
e|-------0------------------0--------------|
B|-0--2-----2--0------0--2-----2--0--------|
G|---------------2-------------------2--2--|
D|--------------------------------------2--|
A|--------------------------------------0--|
E|-----------------------------------------|

--------------------------------------
Enjoy!
Tap to rate this tab
 
# A B C D E F G H I J K L M N O P Q R S T U V W X Y Z