Song name
# A B C D E F G H I J K L M N O P Q R S T U V W X Y Z

White Stripes - You Dont Know What Love Is You Just Do As Youre Told tab



      (0:00-0:23)
e]-------------------------------------------------------------------[
B]-------------5--8-8-7-----5-------------------5--8-8-7-----5-------[
G]-6-6-4---4/6----------4/6---6-4----6-6-4--4/6----------4/6---6-4---[
D]--------------------------------7--------------------------------7-[
A]-------------------------------------------------------------------[
E]-------------------------------------------------------------------[


e]------------------------------------------------------------------[
B]-----5----------------5---8-8-7-----5--------------------5--8-8-7-[
G]-4/6---6-4----------7-----------4/6---6-4----6-6-4---4/6----------[
D]-----------7--5/7-5-----------------------7-----------------------[
A]------------------------------------------------------------------[
E]------------------------------------------------------------------[


      (0:26-0:28
e[--------------------------]
B[-----5------------5-------]
G[-4/6---6-4----4/6---6-4---]
D[-----------7------------7-]
A[--------------------------]
E[--------------------------]


      (0:29-0:44)
e]----------------------------------------------------[
B]----------------------------------------------------[
G]-----------7-7-----------------7-7------------7-----[
D]-7-7--2-2--7-7--7-7--7-7--2-2--7-7--7-7--7-7--7-2-7-[
A]-7-7--2-2--5-5--7-7--7-7--2-2--5-5--7-7--7-7--5-2-7-[
E]-5-5--0-0-------5-5--5-5--0-0-------5-5--5-5----0-5-[


(0:45-0:50)                               (0:51-0:53)
e]---------[                           e]-------------[
B]---------[                           B]-------------[
G]-----7---[                           G]-7-7-6-4-6-2-[
D]-7-2-7-7-[                           D]-------------[
A]-7-2-5-7-[                           A]-------------[
E]-5-0---5-[                           E]-------------[

      (0:54-1:10)
e]----------------------------------------------------[
B]----------------------------------------------------[
G]-----------7-7-----------------7-7------------7-----[
D]-7-7--2-2--7-7--7-7--7-7--2-2--7-7--7-7--7-7--7-2-7-[
A]-7-7--2-2--5-5--7-7--7-7--2-2--5-5--7-7--7-7--5-2-7-[
E]-5-5--0-0-------5-5--5-5--0-0-------5-5--5-5----0-5-[


 (1:11-1:21)
e]---------[
B]---------[
G]-----7---[
D]-7-2-7-7-[
A]-7-2-5-7-[
E]-5-0---5-[


      (1:22-1:39)
e]-------------------------------------------------------------------[
B]-------------5--8-8-7-----5-------------------5--8-8-7-----5-------[
G]-6-6-4---4/6----------4/6---6-4----6-6-4--4/6----------4/6---6-4---[
D]--------------------------------7--------------------------------7-[
A]-------------------------------------------------------------------[
E]-------------------------------------------------------------------[


e]------------------------------------------------------------------[
B]-----5----------------5---8-8-7-----5--------------------5--8-8-7-[
G]-4/6---6-4----------7-----------4/6---6-4----6-6-4---4/6----------[
D]-----------7--5/7-5-----------------------7-----------------------[
A]------------------------------------------------------------------[
E]------------------------------------------------------------------[


      (1:42-2:04)
e]-----------------------------------------------------------[
B]-----------------------------------------------------------[
G]-----------------------------------------------------------[
D]-2-2--5-5--7-7--2-2--10-10-7-7---2-2--5-5--7-7--2-2--10-10-[
A]-2-2--5-5--7-7--2-2--10-10-7-7---2-2--5-5--7-7--2-2--10-10-[
E]-0-0--3-3--5-5--0-0--8--8--5-5---0-0--3-3--5-5--0-0--8--8--[



e]-------------------------------------------------------------[
B]-------------------------------------------------------------[
G]-------------------------------------------------------------[
D]-2-2--5-5--7-7--2-2--10-10-7-7-77--2-2--5-5--7-7--2-2--10-10-[
A]-2-2--5-5--7-7--2-2--10-10-7-7-77--2-2--5-5--7-7--2-2--10-10-[
E]-0-0--3-3--5-5--0-0--8--8--5-5-55--0-0--3-3--5-5--0-0--8--8--[


      (2:07-2:09)
e[--------------------------]
B[-----5------------5-------]
G[-4/6---6-4----4/6---6-4---]
D[-----------7------------7-]
A[--------------------------]
E[--------------------------]


      (2:10-2:25)
e]----------------------------------------------------[
B]----------------------------------------------------[
G]-----------7-7-----------------7-7------------7-----[
D]-7-7--2-2--7-7--7-7--7-7--2-2--7-7--7-7--7-7--7-2-7-[
A]-7-7--2-2--5-5--7-7--7-7--2-2--5-5--7-7--7-7--5-2-7-[
E]-5-5--0-0-------5-5--5-5--0-0-------5-5--5-5----0-5-[


(2:26-2:31)
e]---------[
B]---------[
G]-----7---[
D]-7-2-7-7-[
A]-7-2-5-7-[
E]-5-0---5-[


  (2:32-2:34)
e]-------------------[
B]-15-15-14-12-14-10-[
G]-------------------[
D]-------------------[
A]-------------------[
E]-------------------[


      2:35-2:50)
e]----------------------------------------------------[
B]----------------------------------------------------[
G]-----------7-7-----------------7-7------------7-----[
D]-7-7--2-2--7-7--7-7--7-7--2-2--7-7--7-7--7-7--7-2-7-[
A]-7-7--2-2--5-5--7-7--7-7--2-2--5-5--7-7--7-7--5-2-7-[
E]-5-5--0-0-------5-5--5-5--0-0-------5-5--5-5----0-5-[


(2:51-3:06)
e]---------------------------[
B]---------------------------[
G]-----7--------7--------7---[
D]-7-2-7-7-7--2-7-7--7-2-7-7-[
A]-7-2-5-7-7--2-5-7--7-2-5-7-[
E]-5-0---5-5--0---5--5-0---5-[


THIS IS MY FIRST TAB SO IF YOU FIND ANYTHING WRONG PLEASE LET ME KNOW...
and i didn't copy ok i worked hard on this i didn't even see the other tabs...
DIRTY_ERNIE187@YAHOO.COM
Tap to rate this tab
# A B C D E F G H I J K L M N O P Q R S T U V W X Y Z