Song name
# A B C D E F G H I J K L M N O P Q R S T U V W X Y Z

White Stripes - St James Infirmary Blues tab

The White Stripes - St. James Infirmary Blues

Open Fm tuning:
C F C F Ab C

Chords									
Fm: x00000						
Fm/C: 000000								

Intro:
Fm
Oh, Koko

N.C.

P.M. on low notes
 C|-8--5--------------------------|
Ab|-------------------------------|
 F|-------------------------------|
 C|---0--0--0--0---5--4--0--0--5--|
 F|---0--0--0--0---0--0--0--0--0--|
 C|---------------0---------------|

Verse:
Fm                                 Fm/C  Fm        Fm/C Fm
Well, folks, I'm goin' down to St. James Infirmary
      Fm/C Fm          Fm/C Fm
To see       my little lady   there
                               Fm/C Fm
She's stretched out on a long, white table
      Fm/C Fm
Well, she

 C|-------------------------------|
Ab|-------------------------------|
 F|-7--7------5----5--3--3--2--0--|
 C|-------------------------------|
 F|-------------------------------|
 C|-------------------------------|
    looks so good, so cold, so fair

Verse 2:
Let her go, let her go, God bless her
Wherever she may be
You may search this whole wide world over
But you'll never find another sweetheart like me
Yeah,

Break
 C|-----------------------------------------------|
Ab|-----------------------------------------------|
 F|-0-3-5-7--5-3-5-7--0-3-5-7--5-3-0--0-3-5-7--12-|
 C|-----------------------------------------------|
 F|-0-3-5-7--5-3-5-7--0-3-5-7--5-3-0--0-3-5-7--12-|
 C|-----------------------------------------------|

 C|------------------------------------------|
Ab|------------------------------------------|
 F|-10-7-5-3--12-12-10-10-7-7-5-5-3-3-2-2-0--|
 C|------------------------------------------|
 F|-10-7-5-3--12-12-10-10-7-7-5-5-3-3-2-2-0--|
 C|------------------------------------------|

Verse 3:
Take apart your bones and put 'em back together
Tell your mama that you're somebody new
Feel the breeze blowin', tell 'em all, "Look out, here it comes!"
Now, I can say whatever I feel like to you

Verse 4:
Then give me six crap-shootin' pallbearers
Let a chorus girl sing me a song
Put a red-hot jazz band, we raise
Hallelujah as we go along
Well,

Break 2 
 C|--------------------------5--3-5----------------------------------------|
Ab|------------------------------------------------------------------------|
 F|-0-3-5-7--5-3-5-0-0-3-5-7---------0-3-5-7--12-10-7-5-3--12-10-7-5-3-2-0-|
 C|------------------------------------------------------------------------|
 F|-0-3-5-7--5-3-5-7-0-3-5-7--5-3--0-0-3-5-7--12-10-7-5-3--12-10-7-5-3-2-0-|
 C|------------------------------------------------------------------------|

 C|-----3-----3-----3-----3--|
Ab|-3/4---3/4---3/4---3/4----|
 F|--------------------------|
 C|-0-----0-----0-----0------|
 F|-0-----0-----0-----0------|
 C|--------------------------|

Verse 5:
Well, folks, now that you have heard my story
Say, boy, hand me another shot of that rye
And if anyone should ask you
Just tell 'em I

 C|------------------------------------------------------1-|
Ab|------------------------------------1-----------------1-|
 F|-7--------5------3---2-----0----1-------1-------------1-|
 C|----------------------------------1-----------1-------1-|
 F|---------------------------------------------------1--1-|
 C|------------------------------------------------------1-|
    got some of those St. James Infirmary blues
Tap to rate this tab
# A B C D E F G H I J K L M N O P Q R S T U V W X Y Z