Song name
# A B C D E F G H I J K L M N O P Q R S T U V W X Y Z

White Stripes - Were Going To Be Friends tab

I can tell that we are going to be friends
The White Stripes


Intro

E-------------------------------------------|
B---------------0-------0--------0----------|
G---0---0---0-------0-------0---------------|
D-------------------------------------------|
A-------------------------------------------|
E-3---3---3---3---3---3---3---3-------------|

C

E-------------------------------------------|
B-------------------------------------------|
G---0---0---0---0---0-----------------------|
D-------------------------------------------|
A-3---3---3---3---3-------------------------|
E-------------------------------------------|

Beginning of song

E-------------------------------------------------------------|
B---------------0-------0--------0----------------------------|
G---0---0---0-------0-------0---------------------------------|
D-------------------------------------------------------------|
A-------------------------------------------------------------|
E-3---3---3---3---3---3---3---3-------------------------------|

Fall is here, hear the yell

E-------------------------------------------------------------|
B---------------0-------0--------0----------------------------|
G---0---0---0-------0-------0---------------------------------|
D-------------------------------------------------------------|
A-------------------------------------------------------------|
E-3---3---3---3---3---3---3---3-------------------------------|

Back to school, ring the bell

E-------------------------------------------|
B-------------------------------------------|
G---0---0---0---0---0-----------------------|
D-------------------------------------------|
A-3---3---3---3---3-------------------------|
E-------------------------------------------|

Brand new shoes, walking blues


E---------------------------------------------------------------|
B---0-------0-------0-------------------------------------------|
G-------0-------0-----------------------------------------------|
D---------------------------------------------------------------|
A---------------------------------------------------------------|
E-3---3---3---3---3---------------------------------------------|

climb the fence, books and pens

----------|--------------|---------------------|
B---3---3--|---1-----1----|--------------------|
G----------|--------------|---0---0---0--------|
D-0---0----|--------------|--------------------|
A----------|-3----3-------|--------------------|
E----------|--------------|-3---3---3---3------|

i can tell that we are gonna be friends

E-------------------------------------------|
B---0-------0-------0-----------------------|
G-------0-------0---------------------------|
D-------------------------------------------|
A-------------------------------------------|
E-3---3---3---3---3-------------------------|

Walk with me, Suzy Lee

E-------------------------------------------|
B---0-------0-------0-----------------------|
G-------0-------0---------------------------|
D-------------------------------------------|
A-------------------------------------------|
E-3---3---3---3---3-------------------------|

Through the park, and by the tree

E-----------------------------------------------------------------|
B-----------------------------------------------------------------|
G---0---0---0---0---0---------------------------------------------|
D-----------------------------------------------------------------|
A-3---3---3---3---3-----------------------------------------------|
E-----------------------------------------------------------------|

we will rest upon the ground

E-------------------------------------------|
B---0-------0-------0-----------------------|
G-------0-------0---------------------------|
D-------------------------------------------|
A-------------------------------------------|
E-3---3---3---3---3-------------------------|

And look at all the bugs weíve found

E----------|--------------|-----------------------------------------|
B---3---3--|---1-----1----|-----------------------------------------|
G----------|--------------|---0---0---0-----------------------------|
D-0---0----|--------------|-----------------------------------------|
A----------|-3----3-------|-----------------------------------------|
E-------------- |----------------------|-3---3---3---3--------------|

then safetly walk to school without a sound

E---------------------------------------------------------------|
B---0-------0-------0-------------------------------------------|
G-------0-------0-----------------------------------------------|
D---------------------------------------------------------------|
A---------------------------------------------------------------|
E-3---3---3---3---3---------------------------------------------|

well here we are, no one else

E---------------------------------------------------------------|
B---0-------0-------0-------------------------------------------|
G-------0-------0-----------------------------------------------|
D---------------------------------------------------------------|
A---------------------------------------------------------------|
E-3---3---3---3---3---------------------------------------------|

we walked to school all by ourselves

E-----------------------------------------------------------------|
B-----------------------------------------------------------------|
G---0---0---0---0---0---------------------------------------------|
D-----------------------------------------------------------------|
A-3---3---3---3---3-----------------------------------------------|
E-----------------------------------------------------------------|

there's dirt on our uniforms

E---------------------------------------------------------------|
B---0-------0-------0-------------------------------------------|
G-------0-------0-----------------------------------------------|
D---------------------------------------------------------------|
A---------------------------------------------------------------|
E-3---3---3---3---3---------------------------------------------|

from chasing all the ants and worms



E----------|--------------|-----------------------------------------|
B---3---3--|---1-----1----|-----------------------------------------|
G----------|--------------|---0---0---0-----------------------------|
D-0---0----|--------------|-----------------------------------------|
A----------|-3----3-------|-----------------------------------------|
E---------------|----------------------|-3---3---3---3--------------|

we clean up and now it's time to learn

E---------------------------------------------------------------|
B---0-------0-------0-------------------------------------------|
G-------0-------0-----------------------------------------------|
D---------------------------------------------------------------|
A---------------------------------------------------------------|
E-3---3---3---3---3---------------------------------------------|

numbers. letters, learn to spell

E-------------------------------------------|
B---0-------0-------0-----------------------|
G-------0-------0---------------------------|
D-------------------------------------------|
A-------------------------------------------|
E-3---3---3---3---3-------------------------|

noun, and books, and show and tell

E-------------------------------------------|
B-------------------------------------------|
G---0---0---0---0---0-----------------------|
D-------------------------------------------|
A-3---3---3---3---3-------------------------|
E-------------------------------------------|

at playtime we will throw the ball


E---------------------------------------------------------------|
B---0-------0-------0-------------------------------------------|
G-------0-------0-----------------------------------------------|
D---------------------------------------------------------------|
A---------------------------------------------------------------|
E-3---3---3---3---3---------------------------------------------|

back to class, through the hall



E----------|--------------|-------------------|
B---3---3--|---1-----1----|-------------------|
G----------|--------------|---0---0---0-------|
D-0---0----|--------------|-------------------|
A----------|-3----3-------|-------------------|
E----------|--------------|-3---3---3---3-----|

teacher marks our height against the wall

E-------------------------------------------|
B-------------------------------------------|
G---0---0---0---0---0-----------------------|
D-------------------------------------------|
A-3---3---3---3---3-------------------------|
E-------------------------------------------|

and we don't noticeany time pass

E-------------------------------------------|
B-------------------------------------------|
G---0---0---0---0---0-----------------------|
D-------------------------------------------|
A-3---3---3---3---3-------------------------|
E-------------------------------------------|

we don't notice anything

|----------------------------------|
|---3--3--3--3--3--3--3--3---------|
|----------------------------------|
|-0--0--0--0--0--0--0--0-----------|
|----------------------------------|
|----------------------------------|

we sit side by side in every class

E-------------------------------------------|
B-------------------------------------------|
G---0---0---0---0---0-----------------------|
D-------------------------------------------|
A-3---3---3---3---3-------------------------|
E-------------------------------------------|

teacher thinks that i sound funny



|----------------------------------|
|---3--3--3--3--3--3--3--3---------|
|----------------------------------|
|-0--0--0--0--0--0--0--0-----------|
|----------------------------------|
|----------------------------------|

but she likes the way you sing

E-------------------------------------------|
B---------------0-------0--------0----------|
G---0---0---0-------0-------0---------------|
D-------------------------------------------|
A-------------------------------------------|
E-3---3---3---3---3---3---3---3-------------|

tonight i'll dream while i'm in bed

E-------------------------------------------|
B---------------0-------0--------0----------|
G---0---0---0-------0-------0---------------|
D-------------------------------------------|
A-------------------------------------------|
E-3---3---3---3---3---3---3---3-------------|

when silly songs go through my head

E-----------------------------------------------------------------|
B-----------------------------------------------------------------|
G---0---0---0---0---0---------------------------------------------|
D-----------------------------------------------------------------|
A-3---3---3---3---3-----------------------------------------------|
E-----------------------------------------------------------------|

about the bugs and alphabet

E--------------------------------------------------------------|
B---0-------0-------0------------------------------------------|
G-------0-------0----------------------------------------------|
D--------------------------------------------------------------|
A--------------------------------------------------------------|
E-3---3---3---3---3--------------------------------------------|

and when i wake tomorrow i'll bet



E----------|--------------|-------------------|
B---3---3--|---1-----1----|-------------------|
G----------|--------------|---0---0---0-------|
D-0---0----|--------------|-------------------|
A----------|-3----3-------|-------------------|
E----------|--------------|-3---3---3---3-----|

that you and i will walk together again


E----------|--------------|-------------------|
B---3---3--|---1-----1----|-------------------|
G----------|--------------|---0---0---0-------|
D-0---0----|--------------|-------------------|
A----------|-3----3-------|-------------------|
E----------|--------------|-3---3---3---3-----|
Tap to rate this tab
# A B C D E F G H I J K L M N O P Q R S T U V W X Y Z