Song name
# A B C D E F G H I J K L M N O P Q R S T U V W X Y Z

White Stripes - Screwdriver tab

this song isn't too hard to learn, I think it's the first song the white stripes ever
together, there is a lot of repeating in this song

use a little distortion

Intro
   A       G   A
e--------------------------|
B--------------------------|
G--------------------------|
D--7-7-7-7-5-5-7-7---------|
A--7-7-7-7-5-5-7-7---------|
E--5-5-5-5-3-3-5-5---------|

e--------------------------|
B--------------------------|
G-5---5---5h7-7/8-7-8-5----|
D---7---7---------------7--|
A--------------------------|
E--------------------------|

   A       G   A
e--------------------------|
B--------------------------|
G--------------------------|
D--7-7-7-7-5-5-7-7---------|
A--7-7-7-7-5-5-7-7---------|
E--5-5-5-5-3-3-5-5---------|

e--------------------------|
B--------------------------|
G-5---5---5h7-7/8-7-8-5----|
D---7---7---------------7--|
A--------------------------|
E--------------------------|

then the bar chords change a little

   A       G     A G A
e--------------------------|
B--------------------------|
G--------------------------|
D--7-7-7-7-5-5-5-7-5-7-----|
A--7-7-7-7-5-5-5-7-5-7-----|
E--5-5-5-5-3-3-3-5-3-5-----|

heres the verses

e--------------------------|
B--------------------------|
G--------------------------|
D-------7-----5------------|
A-------7-----5------------|
E-3-----5-----3------------|


e--------------------------|
B--------------------------|
G--------------------------|   4x
D-------7-----5------------|
A-------7-----5------------|
E-------5-----3------------|

then it goes back to this part

  A       G   A
e--------------------------|
B--------------------------|
G--------------------------|
D--7-7-7-7-5-5-7-7---------|
A--7-7-7-7-5-5-7-7---------|
E--5-5-5-5-3-3-5-5---------|

e--------------------------|
B--------------------------|
G-5---5---5h7-7/8-7-8-5----|
D---7---7---------------7--|
A--------------------------|
E--------------------------|

   A       G   A
e--------------------------|
B--------------------------|
G--------------------------|
D--7-7-7-7-5-5-7-7---------|
A--7-7-7-7-5-5-7-7---------|
E--5-5-5-5-3-3-5-5---------|

e--------------------------|
B--------------------------|
G-5---5---5h7-7/8-7-8-5----|
D---7---7---------------7--|
A--------------------------|
E--------------------------|

   A       G     A G A
e--------------------------|
B--------------------------|
G--------------------------|
D--7-7-7-7-5-5-5-7-5-7-----|
A--7-7-7-7-5-5-5-7-5-7-----|
E--5-5-5-5-3-3-3-5-3-5-----|

then back to the verse

e--------------------------|
B--------------------------|
G--------------------------|
D-------7-----5------------|
A-------7-----5------------|
E-3-----5-----3------------|


e--------------------------|
B--------------------------|
G--------------------------|   5x
D-------7-----5------------|
A-------7-----5------------|
E-------5-----3------------|

e--------------------------|
B--------------------------|
G--------------------------|
D-7-7-7--7-7-7--7-7-7------|
A-7-7-7--7-7-7--7-7-7------|
E-5-5-5--5-5-5--5-5-5------|

e--------------------------|
B--------------------------|
D--------------------------|
G--7b-----7-7-7------------|
A---------7-7-7------------|
E---------5-5-5------------|

e--------------------------|
B--------------------------|
G-5h7-7/8-7-8-5------------|
D---------------7----------|
A--------------------------|
E--------------------------|
   A       G   A
e--------------------------|
B--------------------------|
G--------------------------|
D--7-7-7-7-5-5-7-7---------|
A--7-7-7-7-5-5-7-7---------|
E--5-5-5-5-3-3-5-5---------|

e--------------------------|
B--------------------------|
G-5---5---5h7-7/8-7-8-5----|
D---7---7---------------7--|
A--------------------------|
E--------------------------|

    A       G     A G A
e--------------------------|
B--------------------------|
G--------------------------|
D--7-7-7-7-5-5-5-7-5-7-----|
A--7-7-7-7-5-5-5-7-5-7-----|
E--5-5-5-5-3-3-3-5-3-5-----|

e--------------------------|
B--------------------------|
G--------------------------|
D-------7-----5------------|
A-------7-----5------------|
E-3-----5-----3------------|


e--------------------------|
B--------------------------|
G--------------------------|   5x
D-------7-----5------------|
A-------7-----5------------|
E-------5-----3------------|

e--------------------------|
B--------------------------|
G--------------------------|   3x w/ palm mute
D-7----------5-------------|
A-7(8x)------5(8x)---------|
E-5----------3-------------|

e--------------------------|
B--------------------------|
G--------------------------|   3x (strum really hard)
D-7----------5-------------|
A-7(8x)------5(8x)---------|
E-5----------3-------------|

  A       G   A
e--------------------------|
B--------------------------|
G--------------------------|
D--7-7-7-7-5-5-7-7---------|
A--7-7-7-7-5-5-7-7---------|
E--5-5-5-5-3-3-5-5---------|

e--------------------------|
B--------------------------|
G-5---5---5h7-7/8-7-8-5----|
D---7---7---------------7--|
A--------------------------|
E--------------------------|

   A       G   A
e--------------------------|
B--------------------------|
G--------------------------|
D--7-7-7-7-5-5-7-7---------|
A--7-7-7-7-5-5-7-7---------|
E--5-5-5-5-3-3-5-5---------|

e--------------------------|
B--------------------------|
G-5---5---5h7-7/8-7-8-5----|
D---7---7---------------7--|
A--------------------------|
E--------------------------|


e--------------------------|
B--------------------------|
G--------------------------|
D--7-7-7---7-7-7---7-------|
A--7-7-7---7-7-7---7-------|
E--5-5-5---5-5-5---5-------|

if you can't get it right, listen to the song when you play it

Lyrics:
Tuesday mornin' now,
I gotta have somewhere to go.
I call up Tommy now,
I call him on the telephone.

Won't you wake up and come with me now,
I'm goin' to the pawn and loan.
Walkin' down thirty-three,
walkin' down thirty o.

Yeah.

What am I suppose to think,
I dropped a nickel in the sink.
I love people like a brother now,
but i'm not gonna be there brother now.

What if someone walked up to me and,
Like an apple cut right through me.
I not gonna stand there grinning,
Cause I'm not the one whose sinning.
Screwdriver.

Hoo hoo. Hoo hoo.

Now that you have heard my story now,
I got a little ending to it now.
When ever you go out alone,
Take a little dog a bone.

And think about your little sister,
And you gotta drive it home,
Screwdriver.

I got a little feeling goin' now.
I got a little feeling goin' now.
I got a little feeling goin' now.
I got a little feeling goin' now.
I got a little feeling goin' now.
I got a little feeling goin' now!
I got a little feeling goin' now!
I got a little feeling goin' now!
I GOT A LITTLE FEELING GOIN' NOW!
I GOT A LITTLE FEELING GOIN' NOW!
I GOT A LITTLE FEELING GOIN' NOW!
NOW! NOW! NOW!
Tap to rate this tab
# A B C D E F G H I J K L M N O P Q R S T U V W X Y Z