Song name
# A B C D E F G H I J K L M N O P Q R S T U V W X Y Z

White Zombie - Feed The Gods tab

Band: White Zombie
Album: Air Heads Soundtrack
Song: Feed the Gods
Tabbed by: camren braley
Tunning: Drop B (Drop D 1 1/2 steps lower)

Intro:

|--------------------|
|--------------------|
|--------------------|
|--------------------| 8x
|-3-22-3-2/5---------|
|-3-22-3-2/5---------|
pm  ..

|-----------|
|-----------|
|-----------|
|-----------| 4x
|-4-5-6-7-8-|
|-4-5-6-7-8-|


The verse is the same as the intro

pre-chorus
|-----------------------------------------|-------------------------------|
|-----------------------------------------|-------------------------------|
|-----------------------------------------|-------------------------------|
|-----------------------------------------|-------------------------------|
|-3-22-3-2/5----------3-22-3-2/5----------|-3-2-1----------3-2-1----------|
|-3-22-3-2/5-22222222-3-22-3-2/5-22222222-|-3-2-1-22222222-3-2-1-22222222-|
pm  ..       ........   ..       ........         ........       ........

Chorus
|--------------------------|-----------------------------|
|--------------------------|-----------------------------|
|--------------------------|-----------------------------|
|-2----------------------3-|-2---------------------------| 2x
|-2----------------------3-|-2---------------------------|
|-2-22-22-2-222222-22-22-3-|-2-22-22-2-22222-22-22-22222-|


Then its goes the verse, then the pre-chorus, then the chorus.

Break
|------------------|------------------|
|------------------|------------------|
|------------------|------------------|
|------------------|------------------| do this till the next part comes up
|------------------|------------------|
|-22222-22222-2222-|-22222-22222-2222-|

Solo (Wah (may not be right)
|-------------|-------------|-----------14^13^14^13^-|-------------|
|-------------|-------------|------------------------|-------------|
|-------------|-------------|------------------------|-------------|
|-------------|-------------|------------------------|-------------|
|-2-2-3-2-2-1-|-2-2-3-2-2-1-|-2-2-3-2-2--------------|-2-2-3-2-2-1-|
|-------------|-------------|------------------------|-------------|

outro
|-----------|-----------|-----------|-----------|
|-----------|-----------|-----------|-----------|
|-----------|-----------|-----------|-----------|
|-----------|-----------|-4-5-6-7-8-|-4-5-6-7-8-|
|-4-5-6-7-8-|-4-5-6-7-8-|-4-5-6-7-8-|-4-5-6-7-8-|
|-4-5-6-7-8-|-4-5-6-7-8-|-----------|-----------|


Tap to rate this tab
# A B C D E F G H I J K L M N O P Q R S T U V W X Y Z