Song name
# A B C D E F G H I J K L M N O P Q R S T U V W X Y Z

White Zombie - Children Of The Grave tab

Children of the Grave
Artist: White Zombie  (Black Sabbath Cover)
Tabbed by: Alex
This is a fun song to play, and the white zombie version is great.

I'm not gonna say how many times to repeat each riff, just listen to it and figure out yourself.

Key:
x=palm mute
\=slide down
/=slide up
^=bend
h = hammer
p = pull-off
 ~ = vibrato


Intro x 2:

|-----------------------------------------------------------|
|-----------------------------------------------------------|
|----7--7^----9--9^----10--10^----12--12^--14-15------------|
|-----------------------------------------------------------|
|-----------------------------------------------------------|
|-----------------------------------------------------------|


|-----------------------------------------------------------|
|-----------------------------------------------------------|
|-----------------------------------------------------------|
|-----------------------------------------------------------|
|-5----5-5-5-5-5---5-5-5-5-5-----8-7--8-7-------------------|
|-3----3-3-3-3-3---3-3-3-3-3-----6-5--6-5-------------------|

Main riff:
|---------------------------------------------------------|---------|
|---------------------------------------------------------|---------|
|---------------------------------------------------------|---------|
|---------------------------------------------------------|---------|
|-5----5-5-5-5-5---5-5-5-5-5---5-5-5-5--8-7-----|--8-7----|---------|
|-3----3-3-3-3-3---3-3-3-3-3---3-3-3-3--6-5-----|--6-5----|---------|

Verse:
|-----------------------------------------------------|
|-----------------------------------------------------|
|-------------------------------------------------9^--|
|-----------------------------------------------------|
|-5----5-5-5-5-5---5-5-5-5-5---5-5-5-5----------------|
|-3----3-3-3-3-3---3-3-3-3-3---3-3-3-3----------------|


Pre solo

|-----------------------------------------------------------|
|-----------------------------------------------------------|
|-----------------------------------------------------------|
|-----------------------------------------------------------|
|-----------------------------------------------------------|
|--0-0-0-3h4h5-5-6----0-0-0-3h4h5-5-4-----------------------|

|-----------------------------------------------------------|
|-----------------------------------------------------------|
|-----------------------------------------------------------|
|------3----------------------------------------------------|
|--2--1-2--3--2-3-2-3-4-5-----------------------------------|
|--0-----0--1--0-1------------------------------------------|
Tap to rate this tab
# A B C D E F G H I J K L M N O P Q R S T U V W X Y Z