Song name
# A B C D E F G H I J K L M N O P Q R S T U V W X Y Z

White Zombie - Children Of The Grave tab

Children Of The Grave
Tunning
C
G
E#
B#
F
C

Intro
C---------------------------------|
G-5-5--7-7-- 8- 8--10-12--11--12--|
E-7b7b-9b9b-10b10b-12b12b-13b-14b-|bend to match note ^below^
B---------------------------------|
F---------------------------------|
C---------------------------------|

Riff A
C-------------------------|--------|---------------------|---------------|
G-------------------------|--------|---------------------|---------------|
E-------------------------|--------|---------------------|---------------|
B-------------------------|--------|---------------------|9--12\5-55-7-7-|
F-------------------------|-109-109|------------------109|7--12\3-33-5-5-|
C-0-00000-00000-00000-0000|- 87- 87|0-00000-00000-0000 87|---------------|
  . ..... ..... ..... ....          . ..... ..... ....

Verse
C--------------------------|
G--------------------------|
E--------------------------|
B--------------------------|
F------------------------5-|
C-0-0000-0-0000-0-0000-0-3-|

note
b-bend
.-palm mute
\-slide
I think thats the whole song besides the solo
Tap to rate this tab
# A B C D E F G H I J K L M N O P Q R S T U V W X Y Z