Song name
# A B C D E F G H I J K L M N O P Q R S T U V W X Y Z

White Zombie - Super Charger Heaven tab

                              SUPER-CHARGER HEAVEN
                           As recorded by White Zombie
                     (From the 1995 Album ASTRO CREEP 2000)

Words and Music by White Zombie

          E5                   F#5
      3 3 x x x x          5 5 x x x x

Gtr I (Db Ab Db Gb Bb Eb) - 'Untitled'
Gtr II (Db Ab Db Gb Bb Eb) - 'Untitled'

 Misc FX approx 16 secs
             Q=184
 4/4
             Gtr I
  W          a E E E a E E E a E E   E a E E E a E E E E
|----------|-----------------------|----------------------|
|----------|-----------------------|----------------------|
|----------|-4S5-5-5-4S5-5-5-4S5-5-|-5-4S5-5-5-4S5-5-5-5--|
|----------|-----------------------|----------------------|
|----------|-2S3-3-3-2S3-3-3-2S3-3-|-3-2S3-3-3-2S3-3-3-3--|
|----------|-----------------------|----------------------|


  a E E E a E E E a E E   E a E E E a E E E E
|-----------------------|---------------------|
|-----------------------|---------------------|
|-4S5-5-5-4S5-5-5-4S5-5-|-5-4S5-5-5-4S5-5-5-5-|
|-----------------------|---------------------|
|-2S3-3-3-2S3-3-3-2S3-3-|-3-2S3-3-3-2S3-3-3-3-|
|-----------------------|-------------------0-|


    E5F#5        E5F#5
    E Q  E +E  E E E   +E  Q  E E E E E
||-------------------|-------------------||
||o------------------|------------------o||
||-------------------|-------------------||
||-------------------|-------------------||
||o-3-5--5-(5)---3-5-|-(5)-5------------o||
||--3-5--5-(5)-0-3-5-|-(5)-5--0-3h5p3-0--||


 Solo 1
  E5   F#5           E5F#5
  Gtr I
  E    E E E  E   E  E E   +E  E E E +E E E E
|-3----3-3-3--3--------3-|-(3)-3-3-3-(3)3-3---|
|-6b8==6-6-6--6--(6)-6-3-|-(3)-3-3-2-(2)2-2---|
|------------------------|--------------------|
|------------------------|--------------------|
|------------------------|--------------------|
|------------------------|--------------------|
|
| Gtr II
| E    Q   E +E   E  E E    E  Q   E  E E E E
|------------------------|--------------------|
|------------------------|--------------------|
|------------------------|--------------------|
|------------------------|--------------------|
|-3----5---5-(5)-----3-5-|--5--5--------------|
|-3----5---5-(5)--0--3-5-|--5--5---0--3h5p3-0-|


  E5   F#5           E5F#5
  E    E E E  E   E  E E   +E  E E E +E E E E
|-3----3-3-3--3--------3-|-(3)-3-3-9-(9)9-9---|
|-6b8==6-6-6--6--(6)-6-3-|-(3)-3-3-8-(8)8-8---|
|------------------------|--------------------|
|------------------------|--------------------|
|------------------------|--------------------|
|------------------------|--------------------|
|
| E    Q   E +E   E  E E    E  Q   E  E E E E
|------------------------|--------------------|
|------------------------|--------------------|
|------------------------|--------------------|
|------------------------|--------------------|
|-3----5---5-(5)-----3-5-|--5--5--------------|
|-3----5---5-(5)--0--3-5-|--5--5---0--3h5p3-0-|


  E5   F#5           E5   F#5
  E    E E E  E   E  E    E   E E E E E  E E  E
|-3----3-3-3--3------3----3-|-3-3-3-3-3------13-|
|-6b8==6-6-6--6--(6)-6b8==3-|-6-6-6-6-6-(6)3-12-|
|---------------------------|-------------------|
|---------------------------|-------------------|
|---------------------------|-------------------|
|---------------------------|-------------------|
|
| E    Q   E +E   E  E    E   E Q   E E  E E  E
|---------------------------|-------------------|
|---------------------------|-------------------|
|---------------------------|-------------------|
|---------------------------|-------------------|
|-3----5---5-(5)-----3----5-|-5-5---------------|
|-3----5---5-(5)--0--3----5-|-5-5---0-3h=5p3--0-|


  E5 F#5             E5 F#5
   E  E  E  E  E   E  E  E    E  E  E  E  E  E  E E
|-13-13-12-13-13--12-13-13-|-13-15-15-15-15-15-15---|
|-12-12-12-12-12--12-12-12-|-12-12-12-12-12-12-12---|
|--------------------------|------------------------|
|--------------------------|------------------------|
|--------------------------|------------------------|
|--------------------------|------------------------|
|
|  E  Q     E +E   E  E  E    E  Q     E  E  E  E E
|--------------------------|------------------------|
|--------------------------|------------------------|
|--------------------------|------------------------|
|--------------------------|------------------------|
|--3--5-----5-(5)-----3--5-|--5--5------------------|
|--3--5-----5-(5)--0--3--5-|--5--5-----0--3h=5p=3-0-|


    Gtr I
    E E E E E E E E   E E E E E    E  E    E
||------------------|-------------------------|
||o-----------------|--------------3-------3--|
||------------------|---------5b7-(5)-5b7-(5)-|
||------------------|-------------------------|
||o-----------------|-------------------------|
||--3p0-0-5p0-0-6p0-|-0-5p0-0-----------------|


  E E E E E E E E   E E E E E    E  E    E
|-----------------|--------------------------|
|-----------------|--------------3-------3---|
|-----------------|---------5b7-(5)-5b7-(5)--|
|-----------------|--------------------------|
|-----------------|--------------------------|
|-3p0-0-5p0-0-6p0-|-0-5p0-0------------------|


  E E E E E E E E   E E E E E    E  E    E
|-----------------|-------------------------|
|-----------------|--------------3-------3--|
|-----------------|---------5b7-(5)-5b7-(5)-|
|-----------------|-------------------------|
|-----------------|-------------------------|
|-3p0-0-5p0-0-6p0-|-0-5p0-0-----------------|


  E E E E E E E E   E E E E  E      E   E      E
|-----------------|-------------------------------|
|-----------------|-----------------9----------9--|
|-----------------|---------11b13-(11)-11b13-(11)-|
|-----------------|-------------------------------|
|-----------------|-------------------------------|
|-3p0-0-5p0-0-6p0-|-0-5p0-0-----------------------|


   Verses
    $
    E E E E E E E E   E E E E E E E E   E E E E E E E E   E E E E E E E E   4x
||------------------|-----------------|-----------------|-------------------||
||o-----------------|-----------------|-----------------|------------------o||
||------------------|-----------------|-----------------|-------------------||
||------------------|-----------------|-----------------|-------------------||
||o-----------------|-----------------|-----------------|------------------o||
||--3p0-0-5p0-0-6p0-|-0-5p0-0-6-6-6-6-|-3p0-0-5p0-0-6p0-|-0-5p0-0-6-5-6-5---||


  a E E E a E E E a E E   E a E E E a E E E E
|-----------------------|---------------------|
|-----------------------|---------------------|
|-4S5-5-5-4S5-5-5-4S5-5-|-5-4S5-5-5-4S5-5-5-5-|
|-----------------------|---------------------|
|-2S3-3-3-2S3-3-3-2S3-3-|-3-2S3-3-3-2S3-3-3-3-|
|-----------------------|---------------------|


  a E E E a E E E a E E   E a E E E a E E E E
|-----------------------|-----------------------|
|-----------------------|-----------------------|
|-4S5-5-5-4S5-5-5-4S5-5-|-5-4S5-5-5-4S5-5-5-5---|
|-----------------------|-----------------------|
|-2S3-3-3-2S3-3-3-2S3-3-|-3-2S3-3-3-2S3-3-3-3---|
|-----------------------|-------------------0---|


 Chorus
  E5F#5        E5F#5                    E5F#5        E5F#5
  E Q  E +E  E E E   +E  Q  E E E E E   E Q  E +E  E E E   +E  Q  E E E E E
|------------------|------------------|------------------|------------------|
|------------------|------------------|------------------|------------------|
|------------------|------------------|------------------|------------------|
|------------------|------------------|------------------|------------------|
|-3-5--5-(5)---3-5-|-(5)-5------------|-3-5--5-(5)---3-5-|-(5)-5------------|
|-3-5--5-(5)-0-3-5-|-(5)-5--0-3h5p3-0-|-3-5--5-(5)-0-3-5-|-(5)-5--0-3h5p3-0-|


                                                                   To Coda
  E5F#5        E5F#5                    E5F#5        E5F#5
  E Q  E +E  E E E   +E  Q  E E E E E   E Q  E +E  E E E   +E  Q  E E E E E
|------------------|------------------|------------------|-------------------||
|------------------|------------------|------------------|------------------o||
|------------------|------------------|------------------|-------------------||
|------------------|------------------|------------------|-------------------||
|-3-5--5-(5)---3-5-|-(5)-5------------|-3-5--5-(5)---3-5-|-(5)-5------------o||
|-3-5--5-(5)-0-3-5-|-(5)-5--0-3h5p3-0-|-3-5--5-(5)-0-3-5-|-(5)-5--0-3h5p3-0--||


 Solo 2
  E5   F#5            E5F#5
  Gtr I
  E    E E E    +E  E E E    E  E E E E    E E E
|-3----3------------------|-------6-6-6----------|
|-6b8==6---3----(3)-3-3-3-|--3--3-6-6-6------6---|
|----------5b7==(5)-5-5-5-|--5--5-----5b7-(5)3---|
|-------------------------|--------------------5-|
|-------------------------|----------------------|
|-------------------------|----------------------|
|
| Gtr II
| E    Q   E    +E  E E E   +E  Q   E E    E E E
|-------------------------|----------------------|
|-------------------------|----------------------|
|-------------------------|----------------------|
|-------------------------|----------------------|
|-3----5---5----(5)---3-5-|-(5)-5----------------|
|-3----5---5----(5)-0-3-5-|-(5)-5---0-3h===5p3-0-|


  E5F#5          E5F#5
              ~~
  E E E E  E  Q.       +Q      Q    E E E E
|--------------------|--------------x-x-x-3---|
|-5p3---------3------|-(3)----------x-x-x-6b8-|
|-5p3---------3------|-(3)---/12\-------------|
|-----5-3--5---------|------------------------|
|--------------------|------------------------|
|--------------------|------------------------|
|
| E Q   E +E  E  E E   +E  Q      E E E E E
|--------------------|------------------------|
|--------------------|------------------------|
|--------------------|------------------------|
|--------------------|------------------------|
|-3-5---5-(5)----3-5-|-(5)-5------------------|
|-3-5---5-(5)-0--3-5-|-(5)-5------0-3h5p3-0---|


  E5   F#5           E5  F#5
  E    E E E    E  E E   E    E   E E   E E E E E
|-3----3-------------------|------------6-6-6-6-6-|
|-6b8==6---1----1--1-1---1-|--3---3-3---6-6-6-6-6-|
|----------5b7--5--5-5b7-5-|--5b7-5-5b7-----------|
|--------------------------|----------------------|
|--------------------------|----------------------|
|--------------------------|----------------------|
|
| E    Q   E   +E  E E   E   +E   Q     E E E E E
|--------------------------|----------------------|
|--------------------------|----------------------|
|--------------------------|----------------------|
|--------------------------|----------------------|
|-3----5---5---(5)---3---5-|-(5)--5---------------|
|-3----5---5---(5)-0-3---5-|-(5)--5-----0-3h5p3-0-|


  E5  F#5         E5F#5
   Q    E E  E  E E E    E  Q  E +Q   Q
|---------------------|--------------------|
|---------5--5--3-----|-----3--3-(3)-------|
|-(5)---3-5--5--3-----|-----3--3-(3)--3\---|
|-----------------5-3-|--5-----------------|
|---------------------|--------------------|
|---------------------|--------------------|
|
|  E  Q   E +E  E E E   +E  Q  E  E E E  E
|---------------------|--------------------|
|---------------------|--------------------|
|---------------------|--------------------|
|---------------------|--------------------|
|--3--5---5-(5)---3-5-|-(5)-5--------------|
|--3--5---5-(5)-0-3-5-|-(5)-5--0--3h5p3--0-|


   Interlude
    W          H    E    E  E    E    W
||-----------|----------------------|----------|
||o----------|-----------3-------3--|----------|
||-----------|------5b7-(5)-5b7-(5)-|----------|
||-----------|----------------------|----------|
||o----------|----------------------|----------|
||-----------|----------------------|----------|


 1.,2.,3.                  4.
                                      D.S. al Coda
  H    E    E  E    E       H     E      E   E      E
|-----------------------||------------------------------|
|-----------3-------3--o||---------------9----------9---|
|------5b7-(5)-5b7-(5)--||-------11b13-(11)-11b13-(11)--|
|-----------------------||------------------------------|
|----------------------o||------------------------------|
|-----------------------||------------------------------|


 Coda - Solo 3
  &
  E5  F#5              E5  F#5
  Gtr I
    E  E  E   E  E   E   E  E
|-----------------------------|
|-/10-10-10-/10-10--10-/10-10-|
|-/10-10-10-/10-10--10-/10-10-|
|-----------------------------|
|-----------------------------|
|-----------------------------|
|
| Gtr II
|   E  Q      E +E   E   E  E
|-----------------------------|
|-----------------------------|
|-----------------------------|
|-----------------------------|
|---3--5------5-(5)------3--5-|
|---3--5------5-(5)--0---3--5-|


                            E5   F#5         E5  F#5
   E  E    E E E    E E E   E    E E E  E  E S S S S
|-------------------------|---------------------------|
|--x--3----3---3----3-3-3-|-3----3-3-3--3--3----------|
|--x--5b7==5-x-5b7==5-5-5-|-5b7==5-5-5--2--0----------|
|-------------------------|------------------5h6p5p3--|
|-------------------------|---------------------------|
|-------------------------|---------------------------|
|
| +E  Q      E E    E E E   E    Q   E +E  E E   E
|-------------------------|---------------------------|
|-------------------------|---------------------------|
|-------------------------|---------------------------|
|-------------------------|---------------------------|
|-(5)-5-------------------|-3----5---5-(5)---3---5----|
|-(5)-5------0-3h===5p3-0-|-3----5---5-(5)-0-3---5----|


  F#5                     E5 F#5             E5F#5
  \1.5
  Q      +Q    +H          E  E  E  E  E   E E E    E   E  E  E  E  E E E
|-----------------------|------------------------|------------------------|
|-----------------------|------------------------|------------------------|
|-----------------------|------------------------|------------------------|
|-----------------------|--7--7--7--7--7---7-7-7-|--7---7--7--7--7--7-7-7-|
|-----------------------|-12-12-12-11-11--11-8-8-|-12--12-12-11-11-11-8-8-|
|-0------(0)---(0)------|------------------------|------------------------|
|
| E    Q     E  E E E E    E  Q     E +E   E E E   +E   Q     E  E  E E E
|-----------------------|------------------------|------------------------|
|-----------------------|------------------------|------------------------|
|-----------------------|------------------------|------------------------|
|-----------------------|------------------------|------------------------|
|-5----5----------------|--3--5-----5-(5)----3-5-|-(5)--5-----------------|
|-5----5-----0--3h5p3-0-|--3--5-----5-(5)--0-3-5-|-(5)--5-----0--3h=5p3-0-|


  E5 F#5             E5 F#5
   E  E  E  E  E   E  E  E    E   E     E  E  E  E  E  E    Q   Q  H
|-10-10-10-10-10--10-10-10-|-10--10----10-10-10-10-10-10-|--------------*|
|-13-13-13-12-12--12-10-10-|-10--13b15-13-13-13-13-13-13-|-10\----------*|
|--------------------------|-----------------------------|-10\----------*|
|--------------------------|-----------------------------|--------------*|
|--------------------------|-----------------------------|--------------*|
|--------------------------|-----------------------------|--------------*|
|
|  E  Q     E +E   E  E  E   +E   Q        E  E  E  E  E    W
|--------------------------|-----------------------------|--------------*|
|--------------------------|-----------------------------|--------------*|
|--------------------------|-----------------------------|--------------*|
|--------------------------|-----------------------------|--------------*|
|--3--5-----5-(5)-----3--5-|-(5)--5----------------------|--------------*|
|--3--5-----5-(5)--0--3--5-|-(5)--5--------0--3h=5p=3--0-|--------------*|


Duration Legend
---------------
W - whole; H - half; Q - quarter; E - 8th; S - 16th; T - 32nd; X - 64th; a - acciaccatura
+ - note tied to previous; . - note dotted; .. - note double dotted
Uncapitalized letters represent notes that are staccato (1/2 duration)
Irregular groupings are notated above the duration line
Duration letters will always appear directly above the note/fret number it represents the
duration for.  Duration letters with no fret number below them represent rests.  Multi-
bar rests are notated in the form Wxn, where n is the number of bars to rest for.  Low
melody durations appear below the staff

Tablature Legend
----------------
 h   - hammer-on
 p   - pull-off
 b   - bend
 pb  - pre-bend
 r   - bend release (if no number after the r, then release immediately)
 /\  - slide into or out of (from/to "nowhere")
 s   - legato slide
 S   - shift slide
  - natural harmonic
[n]  - artificial harmonic
n(n) - tapped harmonic
 ~   - vibrato
 tr  - trill
 T   - tap
 TP  - trem. picking
 PM  - palm muting
\n/  - tremolo bar dip; n = amount to dip
 \n  - tremolo bar down
 n/  - tremolo bar up
/n\  - tremolo bar inverted dip
 =   - hold bend; also acts as connecting device for hammers/pulls
 <>  - volume swell (louder/softer)
 x   - on rhythm slash represents muted slash
 o   - on rhythm slash represents single note slash

Misc Legend
-----------
 |  - bar
||  - double bar
||o - repeat start
o|| - repeat end
*|  - double bar (ending)
 :  - bar (freetime)
 $  - Segno
 &  - Coda
Tempo markers -  = BPM(8/16=s8/s16), where s8 = swing 8ths, s16 = swing 16ths
Tap to rate this tab
 
# A B C D E F G H I J K L M N O P Q R S T U V W X Y Z