Song name
# A B C D E F G H I J K L M N O P Q R S T U V W X Y Z

Who - Water tab

-------------------------------------------------------------------------------
Water (Live at the Isle of Wight) – The Who
-------------------------------------------------------------------------------
Tabbed by:kingbabyduck

Tuning:Standard

Intro
         i              i      i              r      r
e|------11------10------1------5------------------------------------|
B|------11------11------1------6--------------3------8--------------|
G|-------8-------8------3------3------10------1------6------13------|
D|-------8-------8------3------3------10------1------6------13------|
A|-------8-------8---------------------8------1------6------11------|
E|-------8-------8------1--------------8------1------6--------------|

Verse

These are the root notes used in the verses.  Listen to the song to get the correct 
strumming and feel free to throw in any other chords.

e|--------------------10---------------|
B|------10------8-----11---------------|
G|------10------8------8---------------|
D|------10------8------8---------------|
A|-------8------8------8---------------|
E|-------------------------------------|

Chorus

Once again, these are just the notes, which are in order of playing.  Listen to the song 
to get the correct strumming.

e|-----------------------------------------------------------------|
B|-----------------------------------------------------------------|
G|-----------------------------------------------------------------|
D|-------3------1------12------10------8------7------5------8------|
A|-------3------1------12-------8------8------5------5------8------|
E|-------1------1------10-------8------6------5------3------6------|

There are a couple of solos that I haven’t quite figured out yet, but once I do, I will 
tab them and put them in.

************************************
| i   pick each individual note
| r   rake
| /   slide up
| \   slide down
| h   hammer-on
| p   pull-off
| ~   vibrato
| +   harmonic
| x   Mute note
| b   Bend
| pb  Pre-bend
| br  Bend release
| pbr Pre-bend release
| brb Bend release bend
************************************
Tap to rate this tab
 
# A B C D E F G H I J K L M N O P Q R S T U V W X Y Z