Guitaretab - guitar tabs
Song name
# A B C D E F G H I J K L M N O P Q R S T U V W X Y Z

Wilco - Cant Stand It tab

Canít Stand It
Wilco
Hey guys, I couldnít find any tabs for this song. Tell me what you think or if you have 
corrections. Hope you enjoy.
Mike Lisnek
[ Tab from: http://www.guitaretab.com/w/wilco/113162.html ]
Intro
------------------------------------|
----------------3-3-0-3-5-3-3-0-3-5-|
------------------------------------|
----4-------------------------------|
-5-7-4-4-4-2------------------------|
------------5-3---------------------|
Riff
------------------|
------------------|
--7-7-------------|
--7-7--6-5-3-5-3--|
--5-5---------5---|
------------------|
(riff 2)               (riff 3)
----------------I------------------|
----------------I------------------|
----------------I------------------|
--5-4-2---4-----I----4-------------|
-------5-7-4----I-5-7-4-2----------|
----------------I--------5-3-------|
Intro
Riff
D              G
The way things go
You get so low
Struggle to find your skin (riff)
Hey ho
Look out below
Your prayers will never be answered again (riff)
(riff)
Phones still ring
And singers sing
Speakers are speaking in code (riff)
What now
Well anyhow
Our prayers will never be answered again (riff)

(Chorus)
(Riff 2)
 B                     G
You know it's all beginning (riff 3)
(It's all beginning)
G
To feel like It's ending
(Feels like It's ending) (riff 3)
G
No loves as random
As God's love
A
I can't stand it
I can't stand it

(riff)

The way things get
You get so high
Funny how we make new friends
Oh hey ho
I gotta go
My prayers will never be answered again

(chorus)
(riff)
      F G# G
Speakers speaking
Speakers speaking
Speaking in code
     F G# G
Speakers speaking
Speakers speaking
Speaking in code

(chorus)
(play riff during this part)
D                 G        D         G
Your prayers will never be answered again
Your prayers will never be answered again
Your prayers will never be answered again
Your prayers will never be answered again
Related for Cant Stand It tab