Song name
# A B C D E F G H I J K L M N O P Q R S T U V W X Y Z

Wilco - Hummingbird tab

Wilco - Hummingbird Live Solo
Kicking Television: Live in Chicago
Tabbed by Kenny Chan
Kenny.R.Chan@gmail.com



e|-15-17-19-14---|---------------------------------------|
B|---------------|17--15-17-19---15-----15-19-15-17------|
G|---------------|-------------------16------------------|
D|---------------|---------------------------------------|
A|---------------|---------------------------------------|
E|---------------|---------------------------------------|




e|-------------------------|-----------------------------------------|
B|-------------------------|-----------------------------------------|
G|12-14-15---15--14-12-14--|-14-16-17-16-14-16-17---17-19-20-19-17-16|
D|-------------------------|-----------------------------------------|
A|-------------------------|-----------------------------------------|
E|-------------------------|-----------------------------------------|




e|-15-17-19-14---|-------------------------------------|
B|---------------|17--15-17-19---15-----15-19-15-17----|
G|---------------|-------------------16----------------|
D|---------------|-------------------------------------|
A|---------------|-------------------------------------|
E|---------------|-------------------------------------|



e|---------------------------|--------------------------------------------------|
B|---------------------------|--------------------------------------------------|
G|7-9---9-11---11-12-11-9-11-|-14-14-16-17-16-14-16-17---17-19-20-19-17-19-20---|
D|---------------------------|--------------------------------------------------|
A|---------------------------|--------------------------------------------------|
E|---------------------------|--------------------------------------------------|



e|--------------17-18----20--|22--18--13--10-13-13/14------------|
B|---18-20---20--------------|-----------------------------------|
G|20-------------------------|-----------------------------------|
D|---------------------------|-----------------------------------|
A|---------------------------|-----------------------------------|
E|---------------------------|-----------------------------------|
Tap to rate this tab
# A B C D E F G H I J K L M N O P Q R S T U V W X Y Z