Song name
# A B C D E F G H I J K L M N O P Q R S T U V W X Y Z

Will Haven - Helena tab

-------------------------------------------------------------------------------
			     HELENA - Will Haven
-------------------------------------------------------------------------------
Tabbed by: Floomdesk
Email: floomdeskstudios@yahoo.de

Here's the first tabbed song from their new album!
I watched some live-videos and listened to the song several times on their 
Enjoy playing, it's my first tab! =D

Tuning: B,F#,B,E,G#,C#


Mainriff
|-------------------|
|1010101010---------|
|9-9-9-9-9----------|
|7-7-7-7-7-/3/6-6-6-|
|7-7-7-7-7-/3/6-6-6-|
|7-7-7-7-7-/3/6-6-6-|

Bridge 1
|---------------|
|---------------|
|---------------|
|9/3/2----------|
|9/3/2----------|
|9/3/2-00000000-|
       (palm-mute)

Bridge 2
|------|
|------|
|------|
|------|
|------|
|7p900-|

Refrain  ("we are the chosen...")
|-------------|
|12-12/11/7-6-|
|11-11/10/6-5-|
|9--9-/8-/4-3-|
|9--9-/8-/4-3-|
|9--9-/8-/4-3-|


| /  slide up
| \  slide down
| h  hammer-on
| p  pull-off
| ~  vibrato
| +  harmonic
| x  Mute note
===============================================================================
Tap to rate this tab
 
# A B C D E F G H I J K L M N O P Q R S T U V W X Y Z