Song name
# A B C D E F G H I J K L M N O P Q R S T U V W X Y Z

William Fitzsimmons - Never Let You Go tab

Capo on the 1st fret

Tuning:
              :e
              :B
              :G
 1 note up -> :E  
              :A
              :E

Intro:

e|-----------------|-----------------|-----------------|-----------------:||
B|-----------0-----|-----------0-----|-----------0-----|-----------0-----:||
G|-----------------|-----------------|-----------------|-----------------:||
E|---0---0-------0-|---0---0-------0-|---0---0-------0-|---0---0-------0-:||
A|-----------------|-----------------|-0---0---0---0---|-0---0---0---0---:||
E|-0---0---0---0---|-2---2---2---2---|-----------------|-----------------:||

(repeat it 4 times)



Verse:

e|-----------------|-----------------|-----------------|-----------------:||
B|-----------0-----|-----------0-----|-----------0-----|-----------0-----:||
G|-----------------|-----------------|-----------------|-----------------:||
E|---0---0-------0-|---0---0-------0-|---0---0-------0-|---0---0-------0-:||
A|-----------------|-----------------|-0---0---0---0---|-0---0---0---0---:||
E|-0---0---0---0---|-2---2---2---2---|-----------------|-----------------:||

(repeat it)



Chorus:

e|-----------------|-----------------|-----------------|-----------------:||
B|-----------0-----|-----------0-----|-----------0-----|-----------0-----:||
G|-----------------|-----------------|-----------------|-----------------:||
E|---0---0-------0-|---0---0-------0-|---0---0-------0-|---0---0-------0-:||
A|-4---4---4---4---|-6---6---6---6---|-7---7---7---7---|-7---7---7---7---:||
E|-----------------|-----------------|-----------------|-----------------:||

(repeat it)





If you find mistakes please tell me. thanks...

R_LMR
Tap to rate this tab
 
# A B C D E F G H I J K L M N O P Q R S T U V W X Y Z