Song name
# A B C D E F G H I J K L M N O P Q R S T U V W X Y Z

Winds Of Plague - Angels Of Debauchery tab

angels of debauchery guitar tab


i suck at these and get annoyed after an hour..there shouldnt be but if someone notices 
error, hit me up
-nick eash


(SONG IS IN E STANDARD)


E------------------------------------------|
B------------------------------------------|
G------------------------------------------|
D--1-4-1---0-3-2--2-1--2-1--2-1------------|
A--1-4-1---0-3-2--2-1--2-1--2-1------------|
E--1-4-1---0-3-2--2-1--2-1--2-1------------|
intro and breakdown


E-----------------------------------------------------------------------|
B-----------------------------------------------------------------------|
G-----------------------------------------------------------------------|
D-----------------------------------------------------------------------|
A--1-4-----1-1-1-1-1-1----0-3---2-2-2-2-2-2--2-1---2-1--2-1-------------|
E--1-4----------------------0-3-----------------2-1---2-1--2-1----------|
play twice

E-----------------------------------------------------------------------|
B-----------------------------------------------------------------------|
G-----------------------------------------------------------------------|
D-----------------------------------------------------------------------|
A--2-1----2-2-2-2-2-2--2-1---3-3-3-3-3-3--2-1--2-1--2-1-----------------|
E--2-1-------------------2-1------------------2-1--2-1--2-1-------------|


E----------------------------------------------------------------------|
B----------------------------------------------------------------------|
G----------------------------------------------------------------------|
D----------------------------------------------------------------------|
A--2-1---6-6-6-6-6-6---2-1----7-7-7-7-7-7---2-1--2-1--2-1--------------|
E--2-1-------------------2-1--------------------2-1--2-1--2-1----------|

fill into verse
E-------------------------------------------------|
B-------------------------------------------------|
G-------------------------------------------------|
D-------------------------4-----------------------|
A-------2------3-------------------6--------------|
E--0-3-----0------0-5--------0-7-------0----------|

fill harmony
E----------------------------------------------|
B----------------------------------------------|
G----------------------------------------------|
D--------------------------7-------------------|
A--------5------7----------------------9-------|
E--0-7------0-------0-8-------0--10-----0------|

verse
E-------------------------------------------------------------------------------------|
B-------------------------------------------------------------------------------------|
G-------------------------------------------------------------------------------------|
D-------------------------------------------------------------------------------------|
A--7-------7--------7-----9--------9--------9------10--------10--------10-------------|
E-----0-0-----0-0------0-----0-0------0-0------0-------0-0-------0-0-------0----------|

E----------------------------------------------15-12----------------------|
B-------------------------------------------------------13----------------|
G------------------------------------------------------------12-----------|
D----------------------7-9-10---9-10-12------------------------14---------|
A--6-7-9----7-9-10----------------------------------------------------15--|
E-------------------------------------------------------------------------|

E-------------------------------------------------------------|
B-------------------------------------------------------------|
G-------------------------------------------------------------|
D-------------------------------------------------------------|
A--12--------12-------12-----10-------10-------10-------------|
E-------0-0-------0-0------0------0-0------0-0------0---------|

E-----------------------10-14-10----------------------------------------8-12-8-----------------|
B------------------12-------------12--------------------------------10-----------10------------|
G--------------11--------------------11-------------------------9--------------------9---------|
D----------12---------------------------12----------------10---------------------------10------|
A--10-14-----------------------------------14-10--9-12-----------------------------------12-9--|
E----------------------------------------------------------------------------------------------|
repeat verse twice

chords before chorus
E---------------------|
B---------------------|
G---------------------|
D--2---1---2---1------|
A--2---2---3---2------|
E--0---2---3---2------|

chorus chords
E--------------------------------------|
B--------------------------------------|
G--------------------------------------|
D--2---1---2---1----2---4--0---0-------|
A--2---2---3---2----2---3--2---0-------|
E--0---2---3---2----3---5--3---2-------|
play twice

lead guitar during chorus
E----------------------------------------------------------15----------17---------------|
B----------13-----------12--------------------------17-----------17---------------------|
G------16-----------14-------------------------16------------17----------19-17-19-19~~--|
D--14-----------13----------14----------------------------------------------------------|
A---------------------------------15--17--14--------------------------------------------|
E---------------------------------------------------------------------------------------|
play twice


small chord change before breakdown
E------------------------|
B------------------------|
G------------------------|
D--2---1----1-1-1--------|
A--2---2----1-1-1--------|
E--0---2----1-1-1--------|

breakdown
E------------------------------------|
B------------------------------------|
G------------------------------------|
D--1-1--1-1--1-1----1-1--1-1---------|
A--1-1--1-1--1-1----1-1--1-1---------|
E--1-1--1-1--1-1----1-1--1-1---------|
play 4 times


E--------------|
B--------------|
G--------------|
D--4-3-2-1-----|
A--4-3-2-1-----|
E--4-3-2-1-----|
then the breakdown chord stays the same just slower with a similiar pattern just listen 
the song for the rhythm


clean part rhythm guitar
notes in ( ) are supposed to ring out
E--------------------------------------------------------3-------------5-------|
B----------1---------0-----------------------------5---------------5-----------|
G------4----------2--------------------4-------4-----------5-------------------|
D--2-----------1--------2-----------------4----5-----------4-------------------|
A-----------------------------3--5--2------------------------------------------|
E--0-----------2---------3----------2----------0-----------5-------------------|


E--------------------------------|
B--------------------------------|
G--7---5--7--7----7--------------|
D--5---------------7-------7-----|
A-------------------9----9-------|
E--7---------------10------------|
repeat past two lines twice


clean lead
E------------------------------------------10--------8-7------------------------------|
B--13-12-10------------------------7-8------------------8/12--------------------------|
G--------------12-11-11h12-11---------------7-9---------------12--11b-----------------|
D-------------------------------------------------------------------------------12----|
A-------------------------------------------------------------------------------------|
E-------------------------------------------------------------------------------------|

E----------------------------------------------------------------------------------|
B--------------------------12..--------15~~---15~~---------------------------------|
G----------12..------------12..----14~~--14~~---14~~---12-11-----------------------|
D----------12..----12/14---------------------------------------------12-14---------|
A--12/14---------------------------------------------------------------------------|
E----------------------------------------------------------------------------------|

E--------------------------14-19-14---------------------------------------|
B----------------------15-------------15--------------15-17---------------|
G--------------12/16---------------------16--14--------------16-----------|
D----------14--------------------------------------14---------------------|
A--12-15------------------------------------------------------------------|
E-------------------------------------------------------------------------|

back to distortion chords
E----------------------------------------------|
B----------------------------------------------|
G------------------------4--------11----8------|
D--2----0----4----1----5----5----9----9--------|
A--2----2----5----2----7----7---10----9--------|
E--0----3----5----2----0----8----0-----7-------|

E--------------------------------|
B--------------------------------|
G--------------------------------|
D--2--5--7--9--7--5--4--2--------|
A--2--5--7--9--5--3--2--2--------|
E--0--3--5--7--5--3--2--0--------|


distortion lead
E--------------3-7----------------------10-14---------------------14--11-15-14---------|
B-----------5-----------------------12--------------------------15-----------------12--|
G--------4----------------------11-------------------------14--------------------------|
D-----5---------------------12------------------------16-------------------------------|
A--7--------------------14------------------------17-----------------------------------|

E--------------------------------------------------------------------------------|
B--12-13-15-13-12--10h12p10--------------10-----13------12-----------------------|
G-----------------------------------12-11-12------9-------9-------9--------------|
D--------------------------------------------------------------------------------|
A--------------------------------------------------------------------------------|
E--------------------------------------------------------------------------------|

E----------------7-12-7---------------------------10-14-10---------------------|
B--------------8----------8--------------------12-------------12---------------|
G-----------9----------------9-------------12---------------------12-----------|
D--------9------------------------------12-------------------------------------|
A--7-10-------------------------10-14------------------------------------------|
E------------------------------------------------------------------------------|

E---------------------12-17-12--------------------------------14-19-14-----------------|
B-----------------13-------------13-----------------------15-------------15------------|
G-------------14---------------------14---------------16---------------------16--------|
D---------14---------------------------------------16----------------------------------|
A--12-15-----------------------------------14-17---------------------------------------|
E--------------------------------------------------------------------------------------|

E----------14-19----15-19-15-------------------------------------------------|
B------15------------------------17------------------------------------------|
G--16--------------------------------16--------------------------------------|
D------------------------------------------17--------------------------------|
A-----------------------------------------------19---14-17-14----------------|
E------------------------------------------------------------------15-12-----|


E------------------------12-15-19t-15-12---------------------------------------|
B--------------------12----------------------12--------------------------------|
G----------------12------------------------------12----------------------------|
D------------14---------------------------------------14-----------------------|
A---------14----------------------------------------------14-------------------|
E--12-15------------------------------------------------------15-12------------|
after that plays the verse two more times then......

chords
E-----------------------------------------|
B-----------------------------------------|
G-------5---4-----------------------------|
D--2----5---4---2--------8-------5--------|
A--2----3---2---2--------6-------3--------|
E--0----3---2---0----0---6---0--3---------|


lead
E-----------------------------------------------------|
B-----------------------------------------------------|
G-------14--12--11--9-----9--8--9------8--6--8--------|
D--2--------------------------------------------------|
A--2----12--10---9---7----7--6--7------6--4--6--------|
E--0----------------------0------------0--------------|

E-----------------------------------------------------|
B-----------------------------------------------------|
G-------14--12--11--9------8-----5--------------------|
D--2--------------------------------------------------|
A--2----12--10---9---7-----6-----3--------------------|
E--0----------------------0------0--------------------|
played a bunch of times..after the first two theres a harmony in 3rds


E-----------------------------------------------------|
B-----------------------------------------------------|
G-----------------------------------------------------|
D--2-2-2-2---2-2-2-2--3---2-2-2-2---2-2-2-2-|
A--2-2-2-2---2-2-2-2--3---2-2-2-2---2-2-2-2-|
E--0-0-0-0---0-0-0-0--1---0-0-0-0---0-0-0-0-|
weird chug part also played a bunch of times


stomp riff
is only an f power chord and e power chord with this octave ending...
E-----------------------------|
B-----------------------------|
G-10-9--7-10--9--13-----------|
D-----------------------------|
A--8--7--5--8--7--11----------|
E-----------------------------|

octave harmony
E------------------------------------|
B------------------------------------|
G--14---13--10--14---13---17---------|
D------------------------------------|
A--12---11---8---12---11---15--------|
E------------------------------------|

end breakdown has same rhythm as the part before but slower and the chords two high 
are moved down 1/2 step so its E, A,D
E-----------|
B-----------|
G-----------|
D--1--------|
A--1--------|
E--0--------|
Tap to rate this tab
# A B C D E F G H I J K L M N O P Q R S T U V W X Y Z