Song name
# A B C D E F G H I J K L M N O P Q R S T U V W X Y Z

Winds Of Plague - A Cold Day In Hell tab

                     i hope you enjoy this tab i did
                     the unregisterd one but in this
                     tab it has synth to it so enjoy!
                        comment and rate please.


~ - let note ring


guitar clean intro
|-------------------------------------------------------------|
|-------------------------------------------------------------|
|-------------------------------------------------------------|
|--2~---------------------------------------------------------|
|--2~---------------------------------------------------------|
|--0~---------------------------------------------------------|


synth
|-----5---8--7---12-10-8--7----3-------8--7----8-10-12--------|
|--8------------------------------10--------------------------|
|-------------------------------------------------------------|
|-------------------------------------------------------------|
|-------------------------------------------------------------|
|-------------------------------------------------------------|


guitar riff repeat it
|-------------------------------------------------------------|
|-------------------------------------------------------------|
|-------------------------------------------------------------|
|--2-2222--2--2222--2--2-2222-2--2--22222--2---22222---2------|
|--2-2222--2--2222--2--2-2222-2--2--22222--2---22222---2------|
|--0-0000--0--0000--0--0-0000-0--0--00000--0---00000---0------|


synth
|--0-2--8--7--12-10-8---7--3-2---8--7---12-14-15--------------|
|-------------------------------------------------------------|
|-------------------------------------------------------------|
|-------------------------------------------------------------|
|-------------------------------------------------------------|
|-------------------------------------------------------------|


guitar
|-------------------------------------------------------------|
|-------------------------------------------------------------|
|-------------------------------------------------------------|
|--2-2222--2--2222--2--22222---2222---2---2222--22222---------|
|--2-2222--2--2222--2--22222---2222---2---2222--22222---------|
|--0-0000--0--0000--0--00000---0000---0---0000--00000---------|


synth
|--0-2--8--7--12-10-8---7--0-2---8--7---12--14--15------------|
|-------------------------------------------------------------|
|-------------------------------------------------------------|
|-------------------------------------------------------------|
|-------------------------------------------------------------|
|-------------------------------------------------------------|


guitar repeat it
|-------------------------------------------------------------|
|-------------------------------------------------------------|
|-------------------------------------------------------------|
|--2-2222--2--2222--2--22222---2222---2---2222--22222---------|
|--2-2222--2--2222--2--22222---2222---2---2222--22222---------|
|--0-0000--0--0000--0--00000---0000---0---0000--00000---------|


synth
|--0-2--8--7--12-10-8---7--0-2---8--7---12--12--15------------|
|-------------------------------------------------------------|
|-------------------------------------------------------------|
|-------------------------------------------------------------|
|-------------------------------------------------------------|
|-------------------------------------------------------------|


guitar repeat it
|-------------------------------------------------------------|
|-------------------------------------------------------------|
|-------------------------------------------------------------|
|--2-2222--2--2222--2--22222---2222---2---2222--22222---------|
|--2-2222--2--2222--2--22222---2222---2---2222--22222---------|
|--0-0000--0--0000--0--00000---0000---0---0000--00000---------|


synth
|--0-2--8--7--12-10-8---7--0-2---8--7---12--14----------------|
|-------------------------------------------------24----------|
|-------------------------------------------------24----------|
|-------------------------------------------------------------|
|-------------------------------------------------------------|
|-------------------------------------------------------------|


                     thanks alot hope you enjoyed
                      this tab please dont forget
                        too rate and comment. (:
Tap to rate this tab
 
# A B C D E F G H I J K L M N O P Q R S T U V W X Y Z