Song name
# A B C D E F G H I J K L M N O P Q R S T U V W X Y Z

Winger - Seventeen tab

Tune Guitar Down 1/2 Step
Intro
  Moderate Rock Q=96
 4/4
  Gtr I
             PM     PM    PM    PM    PM
  E  +E   S  S   S  S  S  S  S  S  S  S  S S
|--------------------------------------------|
|---------9-----10-----9-----7-----7-----7-9-|
|---------9------9-----9-----9---------------|
|---------9------9-----9-------------(9)-----|
|-7--(7)----(7)----(7)---(7)---(7)-----------|
|-0--(0)-------------------------------------|


    PM--|   PM              PM
  S S S S S S S S S S S S S S  S  S
|------------------------------------|
|---------7---7-8-7------------------|
|-9-------7---7-7-7-----5p0----2-----|
|-9-7-7---7-7-7-7-7-----5p0----2-----|
|---5---5-----------5s3-----5--0--7--|
|---------------------------3-----0--|


         PM     PM    PM    PM    PM
  +E  S  S   S  S  S  S  S  S  S  S  S S S S
|--------------------------------------------|
|-----9-----10-----9-----7-----7-----7-9-----|
|-----9------9-----9-----9-------------9-9---|
|-----9------9-----9-----9---------------9-7-|
|-(7)---(7)----(7)---(7)---(7)---(7)-------5-|
|-(0)----------------------------------------|


  PM|   PM
  S S S S S S S S S  S  S  S  S  S  S  S
|----------------------------------------|
|-----7---8-7----------------------------|
|-----7---7-7-----5--4--0--5--4--0--7--9-|
|-7---7-7-7-7-----5--5--0--5--5--0--7--9-|
|---5---------5s3-------------------5--7-|
|--------------------------------------0-|


       PM    PM     PM    PM    PM    PM
  +S   S  S  S   S  S  S  S  S  S  S  S  S S S S
|------------------------------------------------|
|---------9-----10-----9-----7-----7-----7-9-----|
|-(9)-----9------9-----9-----9-------------9-9-7-|
|-(9)-(9)-9--9---9-----9-----9-------(9)-----9-7-|
|-(7)-----7-(7)----(7)---(7)---(7)-------------5-|
|-(0)--------------------------------------------|


  PM|   PM             PM      PM|
  S S S S S S S S  S S S S +S  S S S
|--------------------------------------||
|-----7---7-8-7------------------------||
|-----7---7-7-7----5p0-------------2---||
|-7---7---7---7----5p0---2-(2)-----2---||
|---5---5-------5-----5-0-(0)-----0---||
|----------------------3-------2-3-----||


   Verse
    $
        PM-------|  ~~      PM|                  PM|
    +E  S S  S S E  E.  S S S S S   S S S S S S  S S E.  S  E  E
||--------------------------------|--------------------------------|
||o-------------------------------|--------------------------------|
||--(2)-------------7---6-------2-|---2-------2----------2-----2---|
||--(2)-------------5---5-------2-|---2-------2------5---0-----2---|
||o-(0)-3-5--3-0-0----------0-0-0-|---0---x---0------5---------0---|
||--------------------------------|--------------2-3-3---2---------|


     PM------|   ~~
  E  S S S S E   E.  S S S S S   S S E  S E.   E  S S S S S S
|------------------------------|--------------------------------|
|------------------------------|--------------------------------|
|-2--------------7---6-------2-|---2----2------2------------2---|
|-2--------------5---5-------2-|---2----2------0------------2---|
|-0--3-5-3-0-0---0-------0-0-0-|---0----0---------3-2-0-----0---|
|------------------------------|------------------------3-0-----|


       PM------|  ~~      PM|
  +E   S S S S E  E.  S S S S S   S S  E  S  S  E  E.  S  E   E
|-------------------------------|-------------------------------|
|-------------------------------|------------------3------------|
|-(2)-------------7---6-------2-|---2-----2--------2----------2-|
|-(2)-------------5---5-------2-|---2-----2--------0---5------2-|
|-(0)--3-5-3-0-0----------0-0-0-|---0-----0------------5------0-|
|-------------------------------|------------------3---3--------|


                         To Coda
       PM------|  ~~      PM|
  +E   S S S S E  E.  S S S S S   S S E  S E.   E   S S S S S S
|-------------------------------|----------------------------------||
|-------------------------------|----------------------------------||
|-(2)-------------7---6-------2-|---2----2------2------------------||
|-(2)-------------5---5-------2-|---2----2------0-------------3----||
|-(0)--3-5-3-0-0--0-------0-0-0-|---0----0----------3-2-0-----3----||
|-------------------------------|-------------------------3-0-1----||


 Pre-Chorus
       PM|            ~~~~~~~~          PM|     PM|     PM|    PM|
  +E   S S E  S S S.  S.  +S   Q   +E   E S S S S S S S S S S  S S
|--------------------------------|--------------------------0---------|
|--------------------------------|------------------------------------|
|---------------------5---(5)--2-|-(2)------5h7-----5p2-----2---------|
|-(3)------3--3---5---5---(5)--2-|-(2)------5h7-----5p2-----2---------|
|-(3)------3--3---5------------0-|-(0)--0-0-----0-0-----0-0----0------|
|-(1)--1-1----1---3--------------|-------------------------------0----|


              PM|         PM----|            PM       PM|
  Q   E S S E S S S S E   S S S S E  S S S S S S  +S  S S S
|-----------------0---2-|---------2----------------------------||
|-----------3-----------|--------------------------------------||
|-----------0-----2---4-|-4-------4--4-5-5p0---2--(2)----------||
|-3---3-3---0-----2---4-|---4---4-4------5p0---2--(2)-----2----||
|-3---3-3-----x-x-0---2-|-----2----------------0--(0)-----2----||
|-1---1-1---3-----------|--------------------3--------3-2-0----||


 Chorus
          PM     PM    PM    PM    PM
  +E   S  S   S  S  S  S  S  S  S  S  S S S S
|---------------------------------------------|
|------9-----10-----9-----7-----7-----7-9-----|
|------9------9-----9-----9---------------9---|
|-(2)--9------9-----9-----9---------------9-7-|
|-(2)----(7)----(7)---(7)---(7)---(7)-------5-|
|-(0)-----------------------------------------|


  PM|   PM
  S S S S S S S a S S S S S S S S S
|------------------------------------|
|-----7---7-8-7----------------------|
|-----7---7-7-7-----5-4-0-5-4-0-7-9--|
|-7---7---7-7-7-----5-5-0-5-5-0-7-9--|
|---5---5-------5s3-------------5-7--|
|---------------------------------0--|


          PM     PM    PM    PM    PM
  +E   S  S   S  S  S  S  S  S  S  S  S S S S
|---------------------------------------------|
|------9-----10-----9-----7-----7-----7-9-----|
|-(9)--9------9-----9-----9---------------9---|
|-(9)--9------9-----9-----9---------------9-7-|
|-(7)----(7)----(7)---(7)---(7)---(7)-------5-|
|-(0)-----------------------------------------|


  PM|                   PM   PM|
  S S S S S S S S S S S S S  S S S
|-----------------------------------|
|-----7---7-8-7---------------------|
|-----7---7-7-7-----5p0---2---------|
|-7---7---7-7-7-----5p0---2------2--|
|---5---5-------5s3-------0------2--|
|-----------------------3----3-2-0--|


  +E   S  S   S  S  S  S  S  S  S  S  S S S S
|---------------------------------------------|
|------9-----10-----9-----7-----7-----7-9-----|
|------9------9-----9-----9---------------9---|
|-(2)--9------9-----9-----9---------------9-7-|
|-(2)----(7)----(7)---(7)---(7)---(7)-------5-|
|-(0)-----------------------------------------|


  PM|
  S S S S S S S a S S S S S S S S S
|------------------------------------|
|-----7---7-8-7----------------------|
|-----7---7-7-7-----5-4-0-5-4-0-7-9--|
|-7---7---7-7-7-----5-5-0-5-5-0-7-9--|
|---5---5-------5s3-------------5-7--|
|---------------------------------0--|


  1.
  +E   S  S   S  S  S  S  S  S  S  S  S S S S
|---------------------------------------------|
|------9-----10-----9-----7-----7-----7-9-----|
|-(9)--9------9-----9-----9---------------9---|
|-(9)--9------9-----9-----9---------------9-7-|
|-(7)----(7)----(7)---(7)---(7)---(7)-------5-|
|-(0)-----------------------------------------|


  PM|                    PM
  S S  S S S S S S S S S S S  S S S
|------------------------------------||
|------7---7-8-7--------------------o||
|------7---7-7-7-----5p0---2------2--||
|-7----7---7-7-7-----5p0---2------2--||
|---5----5-------5s3-------0------0-o||
|------------------------3----2-3----||


  2.
         PM      PM    PM
   E  S  S    S  S  S  S  E   E  E  S S
|---------------------------------------|
|-----9------10-----9-------------------|
|--9--9-------9-----9-----9------------|
|--9--9-------9-----9-----9----------5-|
|--7----(7)-----(7)---(7)-7----------5-|
|--0----------------------------------3-|


                                                  5
  +Q  +E          S    S    S   S   S   S   E    +E
|--------------------------------------------------------||
|--------------------------------------------------------||
|---------------<12>-<12>----------<5>-----<5>--(<5>)----||
|-(5)-(5)-----------------<12>-<5>-----<5>---------------||
|-(5)-(5)------------------------------------------------||
|-(3)-(3)------------------------------------------------||


 Guitar Solo
  ~     PM--|   PM  PM      ~~~~~~~~                        ~~
  Q   S S S S S S S S S S S S   +E   S S S  T T S S S S S S E.    S
|-----------------------------|-------------------------------------------|
|-----7-------7---7-----7-----|----------------------------------10b12----|
|-------------7-------9-----9-|-(9)--7-7-7h=9p7-6---6-6-------------------|
|-9-----9-9-9---9---9-----9---|-------------------9-----------------------|
|-----------------------------|-------------------------9-7-9-------------|
|-----------------------------|-------------------------------------------|


                                             ~~~~~~~~~~~
     |-3--|     |-3--|
  S  S S  S     S  S S S     +S  S  S S S S  S  +E  +S
|-7-------------7------9b10r=(9)-7----7-----------------|
|---10p7-10b12----10p7-------------10-----7-------------|
|---------------------------------------9----9--(9)-(9)-|
|-------------------------------------------------------|
|-------------------------------------------------------|
|-------------------------------------------------------|


                             ~~~~~~~
  S S   S S S  S S  S  S  S  E  +E    T T  T  T
|---------7-9-10-9-10-10-10s12-(12)--10p9h10h12-|
|-----/10---------------------------------------|
|-7---------------------------------------------|
|---7-------------------------------------------|
|-----------------------------------------------|
|-----------------------------------------------|


|-14p12p10p9h10h12-14p12p10p9--------------------------------------------|

(12)-14p10h12p10p8h10-12p8h=10p8p7h8-p7h8p7h8-10p8p7s5-------------------|

|(7)-9p7p6p4-------|------------|9p7-7-|

  +E   E   S S S S S   T   +T  S S S S S S
|------------------------------------------|
|------------------------------------------|
|--------------7---7b9-7b9r(7)-----7-------|
|-(7)--x--7s9---9--------------9-7---7-9-9-|
|------x-----------------------------------|
|------------------------------------------|


                                             
  E  S S S    S  T T  T T  T T T T S S S S S S
|-------------7---------------------------------|
|---------------10p7----7-----------------------|
|--------9b11--------10---10p9p7---9-7----------|
|-9--x-x-------------------------9-----9-7---7--|
|----x-x-----------------------------------9----|
|-----------------------------------------------|


   ~~~~~~~~~~~~~~~~~~~~~~~~~~
  +H  +S  +S  +S  +E    +e    S
|----------------------------19-|
|-------------------------------|
|-------------------------------|
|-(7)-(7)-(7)-(7)-(7)---(7)-----|
|-------------------------------|
|-------------------------------|
|
| Gtr II
|  Q.     +S   S  +Q  E  S    S
|-------------------------------|
|-------------------------------|
|-------------------------------|
|--4------(4)-------------------|
|--4------(4)-/9--(9)---------7-|
|--2------(2)-----------------0-|


   T  T  T  T  T  T  T  T  T  T  T  T  T  T  T  X  X  T  T  T  T  T  T  T  T  T  T  T  T  T  T  T  T
|-19-19-19-19-19-19-19-19-20p19-17-19-19-19-19-20p19-17-19-19-19-19-20-19-17-19-19-19-19h22-22-17-19----------|

|---------------------------------------------------------------------------|

|     S     S     S     S     S  E           Q     E                       S        S +S

|---------------------------------------------------------------------------|
|-----------5-----7-----5---------------------------------------------------|
|-----7-----------0-----------7-------------------------------------7-(7)---|
|-----0-----3-----------3-----0-------------------------------------0-(0)---|


                                            
            |---5---|  |--3--|
   S   S    X T  X  X  T  T  T  T  T  T  T  T  T  T  T  S    Q    E    S   S
|-19--19---19---20p19-17----17----------------------------------------------|
|------------------------20----20p17-20p17h20p17----17----------------------|
|--------------------------------------19----19b21----19--------------------|
|---------------------------------------------------------------------------|
|----------------------------------------------------------------19---x/--7-|
|---------------------------------------------------------------------x/----|
|                                 
|  S     S       S        S        Q                               Q   E   S        S
|---------------------------------------------------------------------------|
|---------------------------------------------------------------------------|
|---------------------------------------------------------------------------|
|----------------5--------7--------5----------------------------------------|
|--7-----7----------------0-----------------------------------------------7-|
|--0-----0-------3-----------------3--------------------------------------0-|


                                                                                          T
                                           |-----5-----|  |--3--|          |-----------10-------------|
  +S  T  T  T   T S a T  T  T  T  T  T  T  T  S  T  T  T  S  S  S  S   S   T  T  T  T  T  T  T  T  T  T
|-------------------------------------------------------------------------------15h17h19-20p19p17p15h17--|
|--------------------------------------------------13h15-17h18p17p15------17h19--------------------------|
|-----------------------------------------12h14h16-------------------(17)--------------------------------|
|----------(7)------7s9h10h12p10-11h12h14----------------------------------------------------------------|
|-(7)-9h10-----10p9--------------------------------------------------------------------------------------|
|--------------------------------------------------------------------------------------------------------|
|
|  S     S      S   S    S     S  E        Q                       E             S                    S
|---------------------------------------------------------------------------|
|---------------------------------------------------------------------------|
|---------------------------------------------------------------------------|
|----5---7----5-------------------------------------------------------------|
|--7-----7---------------------7-----------------------------------------7--|
|--0-----0------3---5----3-----0-----------------------------------------0--|


            ~~~~~~~~~~~~~~~~~~~~~~~~~~~~~~~~~~~
   T   T  T  T   T   T  T  T   T   T  T  T S    S       +Q.                 +S         S
|-19p=17p15p14-----------------------------------------------------22b24----|
|--------------(17)-19p17p15--------17b20---(17)pb20------(17)pb20----------|
|--------------(17)-19p17p14p0----------------------------------------------|

|----------------5-----7-------5--------------------------------------------|
|-(7)--------7------------------------------------------------------7-------|
|-(0)--------0-------3-----5-------3--------------------------------0-------|


   S  S S S S S S S S S S S S E  S
|----------------------------------|
|----------------------------------|
|-------------------6---6---6-7----|
|-------5-7-5----------------------|
|-(7)-7-------7---7-4---4---4-5--7-|
|-(0)-0-3-5-3-0---0--------------0-|


  S S S S S S S S S S S S   +E      +S     S
|----------------------------------------------|
|-----------------5-----7b8-(7)pb8--(7)pb8-----|
|----------------------------------------------|
|---5-7-5-------6-2---7-4b5-(4)pb5--(4)pb5-----|
|-7---0---7---7----------------------------7---|
|-0-3---3-0---0-4---4s5--------------------0---|


                              ~
  +S  S S S S S S S S S S S S E  S
|----------------------------------|
|----------------------------------|
|-------------------6---6---6-7----|
|-------5-7-5----------------------|
|-(7)-7---0---7---7-4---4---4-5--7-|
|-(0)-0-3---3-0---0--------------0-|


                                  D.S. al Coda
  S S S S S S S S S S S S   +S      +S      S S
|-----------------------------------------------||
|-----------------5-----7b8-(7)pb8--(7)pb8------||
|-------------------------------------------2---||
|---5-7-5-------6-2---7-4b5-(4)pb5--(4)pb5--2---||
|-7-------7---7-----------------------------0---||
|-0-3-5-3-0---0-4---4s5-------------------------||


  &
                                    PM     PM    PM    PM    PM
  S S E S S E E S S S S S S    E S  S   S  S  S  S  S  S  S  S  S S S S
|---------------------------||---------------------------------------------|
|---------------------------||---9-----10-----9-----7-----7-----7-9--------|
|---2---2-----2-------------||---9------9-----9-----9---------------9------|
|---2---2-----0-----------2-||-2-9------9-----9-----9---------------9-7----|
|---0---0-------3-2-0-----2-||-2---(7)----(7)---(7)---(7)---(7)-------5----|
|---------------------3-0-0-||-0-------------------------------------------|


  PM|   PM
  S S S S S S S a S S S S S S S S S
|-----------------------------------|
|-----7---7-8-7---------------------|
|-----7---7-7-7-----5-4-0-5-4-0-7-9-|
|-7---7---7-7-7-----5-5-0-5-5-0-7-9-|
|---5---5-------5s3-------------5-7-|
|---------------------------------0-|


       PM     PM    PM    PM    PM
  E S  S   S  S  S  S  S  S  S  S  S S S S
|--------------------------------------------|
|---9-----10-----9-----7-----7-----7-9-------|
|-9-9------9-----9-----9---------------9-----|
|-9-9------9-----9-----9---------------9-7---|
|-7---(7)----(7)---(7)---(7)---(7)-------5---|
|-0------------------------------------------|


  PM|                   PM  PM|
  S S S S S S S S S S S S S S S S
|---------------------------------|
|-----7---7-8-7-------------------|
|-----7---7-7-7-----5p0---2-------|
|-7---7---7-7-7-----5p0---2-----2-|
|---5---5-------5s3-------0-----2-|
|-----------------------3---3-2-0-|


       PM     PM    PM    PM    PM
  E S  S   S  S  S  S  S  S  S  S  S S S S
|---------------------------------------------|
|---9-----10-----9-----7-----7-----7-9--------|
|---9------9-----9-----9---------------9------|
|-2-9------9-----9-----9---------------9-7----|
|-2---(7)----(7)---(7)---(7)---(7)-------5----|
|-0-------------------------------------------|


  PM|   PM
  S S S S S S S a S S S S S S S S S
|-----------------------------------|
|-----7---7-8-7---------------------|
|-----7---7-7-7-----5-4-0-5-4-0-7-9-|
|-7---7---7-7-7-----5-5-0-5-5-0-7-9-|
|---5---5-------5s3-------------5-7-|
|---------------------------------0-|


       PM     PM    PM    PM    PM
  E S  S   S  S  S  S  S  S  S  S  S S S S
|--------------------------------------------|
|---9-----10-----9-----7-----7-----7-9-------|
|-9-9------9-----9-----9---------------9-----|
|-9-9------9-----9-----9---------------9-7---|
|-7---(7)----(7)---(7)---(7)---(7)-------5---|
|-0------------------------------------------|


  PM|                   PM  PM|
  S S S S S S S S S S S S S S S S
|---------------------------------|
|-----7---7-8-7-------------------|
|-----7---7-7-7-----5p0---2-------|
|-7---7---7-7-7-----5p0---2-----2-|
|---5---5-------5s3-------0-----2-|
|-----------------------3---3-2-0-|


       PM     PM    PM    PM    PM
  E S  S   S  S  S  S  S  S  S  S  S S S S
|---------------------------------------------|
|---9-----10-----9-----7-----7-----7-9--------|
|---9------9-----9-----9---------------9------|
|-2-9------9-----9-----9---------------9-7----|
|-2---(7)----(7)---(7)---(7)---(7)-------5----|
|-0-------------------------------------------|


  PM|   PM
  S S S S S S S a S S S S S S S S S
|-----------------------------------|
|-----7---7-8-7---------------------|
|-----7---7-7-7-----5-4-0-5-4-0-7-9-|
|-7---7---7-7-7-----5-5-0-5-5-0-7-9-|
|---5---5-------5s3-------------5-7-|
|---------------------------------0-|


       PM     PM    PM    PM    PM
  E S  S   S  S  S  S  S  S  S  S  S S S S
|--------------------------------------------|
|---9-----10-----9-----7-----7-----7-9-------|
|-9-9------9-----9-----9---------------9-----|
|-9-9------9-----9-----9---------------9-7---|
|-7---(7)----(7)---(7)---(7)---(7)-------5---|
|-0------------------------------------------|


                                   Outro guitar solo
                                    Gtr I
  PM|                   PM  PM|                              ~~~
  S S S S S S S S S S S S S S S S         Q   E  S   S S  S  Q     +E
|---------------------------------|-----------------/5-7-10--------------|
|-----7---7-8-7-------------------|--------------------------------------|
|-----7---7-7-7-----5p0---2-------|--------------------------------------|
|-7---7---7-7-7-----5p0---2-----2-|-------------------------[9]----(9)--|
|---5---5-------5s3-------0-----2-|--------------------------------------|
|-----------------------3---3-2-0-|--------------------------------------|


                   1/              1/
               ~~
  E   S  S  S  S   S    +S   S  S  +S    S  S  S  S     +S
|---------------------------------------------12----------------|
|-------12-12-----12---(12)h15p12-(12)--12-15----15b17-(15)pb17-|
|---/14-------14------------------------------------------------|
|---------------------------------------------------------------|
|---------------------------------------------------------------|
|---------------------------------------------------------------|


        ~~~~~~~~~~~~~~~~~~
   +E   Q.        +Q         S      +S   S  S
|------------------------------------------------|
|-(15)-15pb17----(15)pb17---15b17r=(15)-12-14----|
|------------------------------------------------|
|------------------------------------------------|
|------------------------------------------------|
|------------------------------------------------|


                                 ~~~~
   S      +S   S  S  S  S  E    +Q.      +S   S
|-----------------------------------------------|
|-14b15r=(14)-12----12-----------------------17-|
|----------------14----12-----------------------|
|----------------------12-14---(14)-----(14)----|
|-----------------------------------------------|
|-----------------------------------------------|


   +S   S  S  S  S  S  S  S  S  S  S  S  S  E   S
|------16----19----19----16h17p16----------16-----------|
|-(17)----17----17----17----------19-17-19-----15pb17r==|
|-------------------------------------------------------|
|-------------------------------------------------------|
|-------------------------------------------------------|
|-------------------------------------------------------|


                        /1   /1
                                              ~~~~
   +E.   S   E   S  S  +S    +S   S  S  S  S  E
|------------------------------------------------|
|-(15)--15--15--12h15-(15)--(15)p12-15-12--------|
|-----------------------------------------14-13--|
|------------------------------------------------|
|------------------------------------------------|
|------------------------------------------------|


 ~~~~~~
         |--3--|
   +E    S  S  S  S  S  S  S  S  S  S  S  S  S S  S
|----------------------------------------------------|
|----------------------------------------------------|
|-(13)--13h14p13-------------------------12-14---14--|
|----------------14-------------12----14-12-12---12--|
|-------------------14-14-14-14----14-14-------------|
|----------------------------------------------------|


                         ~~~~~~~
   +S   S  S  S  E    S  S  +Q.     +S   S
|------------------------------------------|
|------------------------------------------|
|-(14)-14-14-12-14--/16-16-(16)----(16)----|
|-(12)-12-12-12-12----------------------14-|
|------------------------------------------|
|------------------------------------------|


                 ~~~                           T                             T                     T
                                               |-------------12--------------|                 
|-----5-----|
   +T   X  T  T  S.   T  T  T  T  T  T  T  T   T  T  T  T  T  T  T  T  T  T  T  T  S   T  S  T  T  T  T  T 
T
|----------------------------------------------------------------------------------------16h17h19-21p19p17p16--|
|------------------------------------------------------------------15h17h19-21p19-17--19-----------------------|
|-----------------------------------13h14h16--18p16p14p13h14h16h18---------------------------------------------|
|-(14)p12h14-16p14p==12-16p12h14h16----------------------------------------------------------------------------|
|--------------------------------------------------------------------------------------------------------------|
|--------------------------------------------------------------------------------------------------------------|


      T              T              T              T              T              T                          
  ~~
   |------6-------|  |-----5-----|  |-----------10-------------|  |-----------10-------------|
   T  T  T  T  T  T  T  T  T  T  T  T  T  T  T  T  T  T  T  T  T  T  T  T  T  T  T  T  T  T  S  S      +S  
S  S
|-19-21p19p17p16--------------------------------------------------------------------------------------------------|
|----------------19-21p19p17p16-----------------------------------------------------------------------------------|
|-------------------------------19-21p19p18p16h19-21p19p18p16-----------------------------------------------------|
|-------------------------------------------------------------19-21p19p18p16-------------------14b16r=(14)-12-14--|
|----------------------------------------------------------------------------19-21p19p17p16h17--------------------|
|-----------------------------------------------------------------------------------------------------------------|


                                 ~~                          ~~
   +S   S  S  S  S       S       E   S  T  T  S  S  S  S  S  S
|--------------------------------------------------------------|
|--------------------------------------------------------------|
|---------------12b12.5-12b12.5--------------------------------|
|-(14)-14-14-12-----------------14--12-------------------------|
|--------------------------------------14s12-10-12-12-10-------|
|--------------------------------------------------------12-10-|


                             ~~~~~~~
   +Q   S  S  S  S  S  S  S  S  +S    S  T  T  T  T
|---------------------------------------------------|
|------------------------12-12-(12)--12-15p12----12-|
|------------12----14-13----------------------14----|
|-------9s14----14----------------------------------|
|---------------------------------------------------|
|-(10)----------------------------------------------|


   T  T  T  T  T  T  T  T  T  T  T  T  T  T  T  T  T  T  T  T  T  T  T  T  T  T  T  T  T  T  T  T
|----------------------------------------------------------------------------------------------------|
|-15p12----12-15p12----12-15p12----12-15p12----12-15p12----12-15p12----12-15p12----12-15p12----12----|
|-------14----------14----------14----------14----------14----------14----------14----------14-------|
|----------------------------------------------------------------------------------------------------|
|----------------------------------------------------------------------------------------------------|
|----------------------------------------------------------------------------------------------------|


                                                         ~~~~~
   T  T  T  T  T  T  T  T  T  T  T  T  T  T  T  T  T  T  E.         S   S   S   S
|------------------------------------------------------------------12----------14b15r====|
|-15p12-14p12----12-15-12h14p12----12-15p12-14p12----12-15b17----------15--12------------|
|-------------14----------------14----------------14-------------------------------------|
|----------------------------------------------------------------------------------------|
|----------------------------------------------------------------------------------------|
|----------------------------------------------------------------------------------------|


                                                          ~~
   +S   S  S  S  S     S  S  S  S  S  S  S  S  S       S  S
|-(14)-12----12-------12------------------------------------|
|---------15----15b17----15-12------------------------------|
|------------------------------15-14-12----14-12b12.5-------|
|---------------------------------------14------------14-12-|
|---------------------------------------14------------------|
|-----------------------------------------------------------|


   +E    S  T  T   S  S  S  S  S  S  S  S  S  S  S  S
|-----------------------------------------12----------*|
|-----------------------15-------------------12----15-*|
|--------------------------14-------16----------------*|
|-(12)--12-12-12--12-12-------14-14----14-------14----*|
|-----------------------------------------------------*|
|-----------------------------------------------------*|
Tap to rate this tab
# A B C D E F G H I J K L M N O P Q R S T U V W X Y Z