Song name
# A B C D E F G H I J K L M N O P Q R S T U V W X Y Z

Wingnut Dishwashers Union - My Idea Of Fun tab

-------------------------------------------------------------------------------
			    my idea of fun
-------------------------------------------------------------------------------
Tabbed by:austin
Email:austin.traver@yahoo.com

intro:

e|---------------------------------------------------------------------------|
B|-----5---------------------------------------------------------------------|
G|------5---------9--7--------7----------------------------------------------|
D|----5----------9--------------8-----3----5-3-------------------------------|
A|---3---------7-------------8--------3--------------------------------------|
E|--------------------------6---------1--------------------------------------|
i swear ill run away... palm mute (sometimes)
e|---------------------------------------------------------------------------|
B|---5-----10-------------12-------------------------------------------------|
G|---5-----10--x2---------12-------------------------------------------------|
D|---5-----10-------------12-------------------------------------------------|
A|---3-----8--------------10-------------------------------------------------|
E|---------------------------------------------------------------------------|
(same chords as intro just not picked)
e|---------------------------------------------------------------------------|
B|---5-----------------------------------------------------------------------|
G|---5---9-------------------------------------------------------------------|
D|---5---9--8--3-------------------------------------------------------------|
A|---3---7--8--3-------------------------------------------------------------|
E|----------6--1-------------------------------------------------------------


just those 3 riffs for the whole song listen to see
Tap to rate this tab
# A B C D E F G H I J K L M N O P Q R S T U V W X Y Z