Song name
# A B C D E F G H I J K L M N O P Q R S T U V W X Y Z

Wings - Love In Song tab

---------------------------------------------------------------------------
                Love in Song – Wings
---------------------------------------------------------------------------
Tabbed by: maguri
Tuning: Standard

Wings
Love in Song (1975)
(McCartney)

From: "Venus and Mars"

---------------------------------------------------------------------------

INTRO / VERSE

  Em7              Em6add9         C/E               Em7
  1 + 2 + 3 + 4 +  1 + 2 + 3 + 4 +  1 + 2 + 3 + 4 +  1 + 2 + 3 + 4 +
e|------3---------|------2---------|------0---------|----------------|
B|----3-----------|----2-----------|----1-----------|------3---------|
G|----------------|----------------|----------------|----4-----------|
D|--2-------------|--2-------------|--2-------------|--2-------------|
A|----------------|----------------|----------------|----------------|
E|0---------------|0---------------|0---------------|0---------------|
  E7               E7
  1 + 2 + 3 + 4 +  1 + 2 + 3 + 4 +  
e|----------------|----------------|
B|----3---3---3---|----3---3---3---|
G|--01—-01--01--01|--01—-01--01--01|
D|--h--h----h---h-|--h--h----h---h-|
A|----------------|----------------|
E|0---------------|0---------------|


---------------------------------------------------------------------------
CHORDS

        E-A-D-G-B-E
Em7     0-2-2-0-3-3
Em6add9 0-2-2-0-2-2
C/E     0(3)2-0-1-0
Em7*    0-2-2-0-3-0
E7      0-2-2-1-3-0
Em/D    x-x-0-0-0-0

---------------------------------------------------------------------------


INTRO
| Em7 | Em6add9 | C/E | Em7* | 
| E7 | % |


VERSE
Em7             Em6add9
 My heart cries out for love
    C/E                Em7*
And all that goes with loving
        E7             E7
Love in song - love in song


VERSE 
Em7            Em6add9
 My, you're so fine
             C/E             Em7*
When love is mine I can't go wrong
        E7             E7
Love in song - love in song


MIDDLE 8
Em        Em/D C
I can see the  places 
        Bm            Em
That we used to go to now
G                Bm
Happiness in the homeland

| Em   Em/D | C | Bm | Em |

G                Bm
Happiness in the homeland


VERSE
Em7           Em6add9
 My eye cries out
            C/E           Em7*
A tear stillborn, misunderstanding
        E7             E7
Love in song - love in song


MIDDLE 8
Em        Em/D C
I can see the  places 
        Bm            Em
That we used to go to now
G                Bm
Happiness in the homeland

| Em   Em/D | C | Bm | Em |

G                Bm
Happiness in the homeland


VERSE
Em7             Em6add9
My, you're so fine
             C/E             Em7*
When love is mine I can't go wrong
        E7             E7             E7       E
Love in song - love in song - love in song
Tap to rate this tab
 
# A B C D E F G H I J K L M N O P Q R S T U V W X Y Z