Song name
# A B C D E F G H I J K L M N O P Q R S T U V W X Y Z

Wintersleep - Oblivion tab

Help us improve GuitareTab! Take a short survey!
Wow this is an awesome song surprised no one has tabbed it yet.

tuning: standard (E A D G B E)

intro part one (lead guitar):

E|-------------------------------15-15-|
B|-------------------15-15-17-17-------|
G|-14-16-17-16-16-16-------------------|
D|-------------------------------------|
A|-------------------------------------|
E|-------------------------------------|   x4

intro part two (lead guitar)

E|---------------------3-3-|
B|-------------3-3-5-5-----|
G|-2-4-5-4-4-4-------------|
D|-------------------------|
A|-------------------------|
E|-------------------------| x4

intro part two (rythm guitar)

E|-------------------------|
B|-------------------------|
G|-------------------------|
D|-------------------------|
A|-5-5-5-5-5-5-5-5-5-5-5-5-|
E|-3-3-3-3-3-3-3-3-3-3-3-3-| x4

verse (lead guitar):

E|---------------------3-3-|
B|-------------3-3-5-5-----|
G|-2-4-5-4-4-4-------------|
D|-------------------------|
A|-------------------------|
E|-------------------------| x14

verse (rythm guitar):

E|-------------------------|
B|-------------------------|
G|-------------------------|
D|-------------------------|
A|-5-5-5-5-5-5-5-5-5-5-5-5-|
E|-3-3-3-3-3-3-3-3-3-3-3-3-| x4

E|-------------------------|
B|-------------------------|
G|-------------------------|
D|-5-5-5-5-5-5-5-5-5-5-5-5-|
A|-3-3-3-3-3-3-3-3-3-3-3-3-|
E|-------------------------| x2

E|-------------------------|
B|-------------------------|
G|-------------------------|
D|-------------------------|
A|-5-5-5-5-5-5-5-5-5-5-5-5-|
E|-3-3-3-3-3-3-3-3-3-3-3-3-| x4

E|-------------------------|
B|-------------------------|
G|-------------------------|
D|-5-5-5-5-5-5-5-5-5-5-5-5-|
A|-3-3-3-3-3-3-3-3-3-3-3-3-|
E|-------------------------| x2

E|-------------------------|
B|-------------------------|
G|-------------------------|
D|-------------------------|
A|-5-5-5-5-5-5-5-5-5-5-5-5-|
E|-3-3-3-3-3-3-3-3-3-3-3-3-| x2

chorus 1:

E|-------------------------|
B|-------------------------|
G|-------------------------|
D|-------------------------|
A|-2-2-2-2-2-2-2-2-2-2-2-2-|
E|-0-0-0-0-0-0-0-0-0-0-0-0-| x2

E|-------------------------|
B|-------------------------|
G|-------------------------|
D|-5-5-5-5-5-5-5-5-5-5-5-5-|
A|-3-3-3-3-3-3-3-3-3-3-3-3-|
E|-------------------------| x2

breakdown 1 part 1 (lead guitar):

E|-------------------------------15-15-|
B|-------------------15-15-17-17-------|
G|-14-16-17-16-16-16-------------------|
D|-------------------------------------|
A|-------------------------------------|
E|-------------------------------------| x1

breakdown 1 part 2 (lead guitar):

E|---------------------3-3-|
B|-------------3-3-5-5-----|
G|-2-4-5-4-4-4-------------|
D|-------------------------|
A|-------------------------|
E|-------------------------| x4

breakdown 1 part 2 (rythm guitar):

E|-------------------------|
B|-------------------------|
G|-------------------------|
D|-------------------------|
A|-5-5-5-5-5-5-5-5-5-5-5-5-|
E|-3-3-3-3-3-3-3-3-3-3-3-3-| x4

verse

chorus 2 (both guitars):

E|-------------------------|
B|-------------------------|
G|-------------------------|
D|-------------------------|
A|-2-2-2-2-2-2-2-2-2-2-2-2-|
E|-0-0-0-0-0-0-0-0-0-0-0-0-| x2

E|-------------------------|
B|-------------------------|
G|-------------------------|
D|-5-5-5-5-5-5-5-5-5-5-5-5-|
A|-3-3-3-3-3-3-3-3-3-3-3-3-|
E|-------------------------| x2

E|-------------------------|
B|-------------------------|
G|-9-9-9-9-9-9-9-9-9-9-9-9-|
D|-9-9-9-9-9-9-9-9-9-9-9-9-|
A|-7-7-7-7-7-7-7-7-7-7-7-7-|
E|-------------------------| x2

E|-------------------------|
B|-7-7-8-8-8-8-8-8-8-8-8-8-|
G|-6-6-7-7-7-7-7-7-7-7-7-7-|
D|-4-4-5-5-5-5-5-5-5-5-5-5-|
A|-------------------------|
E|-------------------------|

E|-8-8-8-8-8-8-8-8-8-8-8-8-|
B|-6-6-6-6-6-6-6-6-6-6-6-6-|
G|-------------------------|
D|-------------------------|
A|-------------------------|
E|-------------------------|

Breakdown 2 part 1 (lead guitar):

E|---------------------3-3-|
B|-------------3-3-5-5-----|
G|-2-4-5-4-4-4-------------|
D|-------------------------|
A|-------------------------|
E|-------------------------| x4

breakdown 2 part 1 (rythm guitar):

E|-------------------------|
B|-------------------------|
G|-------------------------|
D|-------------------------|
A|-5-5-5-5-5-5-5-5-5-5-5-5-|
E|-3-3-3-3-3-3-3-3-3-3-3-3-| x4

breakdown 2 part 2 (lead guitar):

E|-------------------------------15-15-|
B|-------------------15-15-17-17-------|
G|-14-16-17-16-16-16-------------------|
D|-------------------------------------|
A|-------------------------------------|
E|-------------------------------------|   x4

breakdown 2 part 2 (rythm guitar):

E|-------------------------|
B|-------------------------|
G|-------------------------|
D|-------------------------|
A|-5-5-5-5-5-5-5-5-5-5-5-5-|
E|-3-3-3-3-3-3-3-3-3-3-3-3-| x4

breakdown 2 part 3 (both guitars):

E|-------------------------|
B|-------------------------|
G|-------------------------|
D|-5-5-5-5-5-5-5-5-5-5-5-5-|
A|-3-3-3-3-3-3-3-3-3-3-3-3-|
E|-------------------------| x4

chorus 2

outro (lead guitar):

E|-------------------------------15-15-|
B|-------------------15-15-17-17-------|
G|-14-16-17-16-16-16-------------------|
D|-------------------------------------|
A|-------------------------------------|
E|-------------------------------------| x4

outro (rythm guitar):

E|-------------------------|
B|-------------------------|
G|-------------------------|
D|-------------------------|
A|-5-5-5-5-5-5-5-5-5-5-5-5-|
E|-3-3-3-3-3-3-3-3-3-3-3-3-| x4

then both guitars end on

E|---
B|---
G|---
D|---
A|-5-
E|-3-

enjoy the tab!
Related for Oblivion tab