Song name
# A B C D E F G H I J K L M N O P Q R S T U V W X Y Z

Wintersun - Death And The Healing tab

Band: Wintersun
Album: Wintersun
Song: Death and the Healing

Tabbed by: coVal


Tuning: Standard E (EADGBE)

| p pull-off
| h hammer-on
| ~ vibrato
| s legato slide
| g grace note
| \ slide down


Note: Song is played in Standard C, so if you want to play in that tuning 
      transfer all notes 4 frets further, for example instead of 12 fret 
      play 16 fret. 
      The reason I tabbed it in Std E is because it's more common tuning.

-=0:00=- 1st Melody

||-------------------------------------|
||----------------11-------------------|
||-13p12-10----12----13p12-10----------|
||----------10----------------10-------|
||-------------------------------11----|
||-------------------------------------|

                                      x6
|-------------------------------------||
|-11----11h13-11~~~-11----11h13-------||
|----10----------------10-------12----||
|-------------------------------------||
|-------------------------------------||
|-------------------------------------||


-=0:31=- 2nd Melody
                                              
||-------------------------------------------------|
||-------------------------------------------------|
||-13----12p10-------------------------13----12h13-|
||-------------10----13~~~-13~~~-13~~~-------------|
||-------------------------------------------------|
||-------------------------------------------------|


|-------------------------------------------------|
|-11----------------------------------------------|
|-------13---s12----------13----12p10-------------|
|-------------------13~~~-------------10----13~~~-|
|-------------------------------------------------|
|-------------------------------------------------|

        (hit extra note at 11th fret and instantly hammer-on 13th)
                              (11g)               x2
|-------------------------------------------------||
|-------------------------11~~~-13~~~p11~~~-------||
|-------------13----12h13~------------------12~~~-||
|-13~~~-13~~~-------------------------------------||
|-------------------------------------------------||
|-------------------------------------------------||


-=0:53=-

Play 1st Melody 4 times.


-=1:14=- 1st Melody 2 frets further

||-------------------------------------|
||----------------13-------------------|
||-15p14-12----14----15p14-12----------|
||----------12----------------12-------|
||-------------------------------13----|
||-------------------------------------|

                                      x4
|-------------------------------------||
|-13----13h15-13~~~-13----13h15-------||
|----12----------------12-------14----||
|-------------------------------------||
|-------------------------------------||
|-------------------------------------|| 

-=1:36=- 2nd Melody 2 frets further

||-------------------------------------------------|
||-------------------------------------------------|
||-15----14p12-------------------------15----14h15-|
||-------------12----15~~~-15~~~-15~~~-------------|
||-------------------------------------------------|
||-------------------------------------------------|


|-------------------------------------------------|
|-13----------------------------------------------|
|-------15---s14----------15----14p12-------------|
|-------------------15~~~-------------12----15~~~-|
|-------------------------------------------------|
|-------------------------------------------------|

                              (13g)               x2
|-------------------------------------------------||
|-------------------------13~~~-15~~~p13~~~-------||
|-------------15----14h15~------------------14\---||
|-15~~~-15~~~-------------------------------------||
|-------------------------------------------------||
|-------------------------------------------------||


Good luck and have fun! :)
Tap to rate this tab
# A B C D E F G H I J K L M N O P Q R S T U V W X Y Z