Song name
# A B C D E F G H I J K L M N O P Q R S T U V W X Y Z

Wishbone Ash - Ballad Of The Beacons tab

Ballad Of The Beacons (First Solo )
by Wishbone Ash
from the album Wishbone Four

Transcribed by Robert Watson robertwatson14@btinternet.com

        G     C           G               C

E|-----|-----|-----------|------10-------|-------12|
B|-----|-----|8h10p8---8-|10b12----10b12-|10-------|
G|----7|9-7-9|-------9---|---------------|---------|
D|7s9--|-----|-----------|---------------|---------|
A|-----|-----|-----------|---------------|---------|
E|-----|-----|-----------|---------------|---------|

  G              C          D7sus4          D7

E|15-12h15p12---|----------|---------------|------------|
B|------------15|----------|------15-------|------------|
G|--------------|14---12-14|14b16----14b16-|14----14b16-|
D|--------------|----------|---------------|------------|
A|--------------|----------|---------------|------------|
E|--------------|----------|---------------|------------|

  G        C              G              C
 
E|---12-15|17b19----17b19|17b19-17-15---|--------------|
B|15------|--------------|------------17|15h17p15------|
G|--------|--------------|--------------|---------17-16|
D|--------|--------------|--------------|--------------|
A|--------|--------------|--------------|--------------|
E|--------|--------------|--------------|--------------|

  G              C       D7sus4         D7

E|--------------|-------|--------------|--------------|
B|--------------|15---15|17-15-17b18r17|15------------|
G|17p16----16h17|-------|--------------|--------------|
D|------17------|-------|--------------|--------------|
A|--------------|-------|--------------|--------------|
E|--------------|-------|--------------|--------------|

  Am7                  Bm          Em

E|--------------------|-----------|---------------------12|
B|--------------------|---------12|12h13p12----12-13-15---|
G|------11-12-11h12p11|11-12-14---|---------14------------|
D|12-14---------------|-----------|-----------------------|
A|--------------------|-----------|-----------------------|
E|--------------------|-----------|-----------------------|

            Am                Bm             Em

E|14-15-17-|17-14----------14|12------------|-----------------|
B|---------|------15---------|---15b17-15-12|-----------------|
G|---------|---------14s12---|--------------|15-14-12----14---|
D|---------|-----------------|--------------|---------14----14|
A|---------|-----------------|--------------|-----------------|
E|---------|-----------------|--------------|-----------------|

                 Am             Bm           

E|--------------|------11-12-14|14b15-14-12h14p12-|
B|--------------|11-12---------|------------------|
G|12-11----11-12|--------------|------------------|
D|------14------|--------------|------------------|
A|--------------|--------------|------------------|
E|--------------|--------------|------------------|

  Em                        Am        Bm

E|--------------|----------|---------|-------------------|
B|15-12h15p12---|12---12---|---------|12-----------------|
G|------------14|--------15|14-12----|---15-14-12s11-12--|
D|--------------|----------|------14-|-------------------|
A|--------------|----------|---------|-------------------|
E|--------------|----------|---------|-------------------|

  Em                               G        C      G

E|--------------|-----------------|--------|------|-------------|
B|--------------|-----------------|--------|------|-------------|
G|--------------|-----------------|--------|------|-------------|
D|14-12---------|------12---------|--------|------|------12-14--|
A|------14p12---|12h14----14p12---|12------|----12|12h14--------|
E|------------15|---------------15|---15-12|-15---|-------------|

  C      G            C        D7sus4       D7 

E|------|------------|--------|------------|----------------|
B|------|---15-------|--------|------------|----------------|
G|12-14b|16----14b16-|14-12---|------------|----------------|
D|------|------------|------14|12----------|----------------|
A|------|------------|--------|------------|----------------|
E|------|------------|--------|------------|----------------|

Ballad Of The Beacons (Second Solo )
 
              Em                           Bm

E|---7|------|------|------|------|-------|------|--------|
B|----|7-8-10|------|------|-----8|10b12-8|------|--------|
G|----|------|9-----|------|---9--|-------|9-----|--------|
D|----|------|------|------|------|-------|--9---|-------9|
A|----|------|------|------|------|-------|------|--------|
E|----|------|------|------|------|-------|------|--------| 

  B7          Am            Bm7            Am

E|----|------|-----|--14-15|17---|---15-14|-----|--------|
B|----|------|15b17|-------|-----|--------|15b17|--15--12|
G|8---|------|-----|-------|-----|--------|-----|--------|
D|----|------|-----|-------|-----|--------|-----|--------|
A|----|------|-----|-------|-----|--------|-----|--------|
E|----|------|-----|-------|-----|--------|-----|--------|

  Bm             Em                                     Am

E|-----|--------|---12-12------------|-----------------|------|----|
B|-----|--------|---------15-14-12---|-----------------|------|----|
G|14-12|14b16-12|------------------14|12p11-12----11-12|12-11-|----|
D|-----|--------|14------------------|---------14------|------|----|
A|-----|--------|--------------------|-----------------|------|----|
E|-----|--------|--------------------|-----------------|------|----|

  Em                               Am                     Bm

E|14-------15-15-17|15-12---------|-------|-----|--------|--------|
B|---15-17---------|------12h15p12|-------|-----|---12-13|12------|
G|-----------------|--------------|14-----|-----|--------|---12-11|
D|-----------------|--------------|-------|-----|14------|--------|
A|-----------------|--------------|-------|-----|--------|--------|
E|-----------------|--------------|-------|-----|--------|--------|

  Em               G        Bm         Emsus4 Am

E|-------|------|8b10-8-7|----(7pb8)r7|------|----------------------|
B|-------|---7-8|--------|8-----------|10----|--(15pb17)r15-13-12---|
G|s9-----|------|--------|--9---------|------|--------------------14|
D|-------|------|--------|------------|------|----------------------|
A|-------|------|--------|------------|------|----------------------|
E|-------|------|--------|------------|------|----------------------|

  Bm      Em           

E|12-----|----------|
B|-------|----------|
G|-------|14b16r14--|
D|---14--|----------|
A|-------|----------|
E|-------|----------|

Ballad Of The Beacons (Third Solo )
 
                Am          Bm          Em

E|-----------12|---------15|---------15|------12-15-------12-15|
B|-----15b17---|15b17------|15b17------|15b17-------15b17------|
G|-------------|-----------|-----------|-----------------------|
D|-------------|-----------|-----------|-----------------------|
A|-------------|-----------|-----------|-----------------------|
E|-------------|-----------|-----------|-----------------------|

                          Am                   Bm

E|------12-15-------12-12|------14-15-17-17b18|17b19-17-15|
B|15b17-------15b17------|17b19---------------|-----------|
G|-----------------------|--------------------|-----------|
D|-----------------------|--------------------|-----------|
A|-----------------------|--------------------|-----------|
E|-----------------------|--------------------|-----------|

  Em                                        Am

E|15h17-15h17p15----15---|-----------------|-----------------|
B|---------------17----17|17b19r17-17b19r17|17b19r17-17b19r17|
G|-----------------------|-----------------|-----------------|
D|-----------------------|-----------------|-----------------|
A|-----------------------|-----------------|-----------------|
E|-----------------------|-----------------|-----------------|

  Bm          Em                      Am
-
E|-----------|-------------|---------|--------------------|
B|15b17-15-12|15---12h15p12|12-12----|--------------------|
G|-----------|-------------|------15-|14-12----14b16-14-12|
D|-----------|-------------|---------|------14------------|
A|-----------|-------------|---------|--------------------|
E|-----------|-------------|---------|--------------------|

  Bm          Em                         G

E|-----------|-----------------|--------|-----------------|
B|-----------|15----------10---|--------|-------8-10b12---|
G|14-12-14b16|---12b14-12----12|9-------|---7-9-----------|
D|-----------|-----------------|-----7h8|h9---------------|
A|-----------|-----------------|--------|-----------------|
E|-----------|-----------------|--------|-----------------|

  C        G              C       G              C

E|--------|--------------|-------|--------------|-------|
B|10------|-------8-10b12|10-----|-------8-10b12|10-8-10|
G|--------|---7-9--------|-------|---7-9--------|-------|
D|-----7h8|h9------------|----7h8|h9------------|-------|
A|--------|--------------|-------|--------------|-------|
E|--------|--------------|-------|--------------|-------|

  D7sus4         D7         G         C         G

E|------10------|----------|----15b17|15-------|----------|
B|10b12----10b12|10---15b17|15-------|----15b17|15--------|
G|--------------|----------|---------|---------|-----14b16|
D|--------------|----------|---------|---------|----------|
A|--------------|----------|---------|---------|----------|
E|--------------|----------|---------|---------|----------|

  C          G              C        D7sus4        D7

E|----------|--------------|--------|-------------|---------|
B|----------|12------------|--------|-------------|---------|
G|14---12-14|---14-12h14p12|--------|-------------|---------|
D|----------|--------------|14-12-14|12---14b15r14|12-------|
A|----------|--------------|--------|-------------|----12-12|
E|----------|--------------|--------|-------------|---------|

  G        C          G              C

E|--------|----------|--------------|-------------------|
B|--------|----------|--------------|---------------15--|
G|--------|----------|--------------|------12-14s16-----|
D|--------|----------|---------12-14|12-14--------------|
A|12-10---|----------|10-12s14------|-------------------|
E|------12|10---10h12|--------------|-------------------|

  G           C              D7sus4         D7        

E|---15-17b19|17-15h17p15---|--------------|--------------|
B|17---------|------------17|17-15-17b18r17|15------------|
G|-----------|--------------|--------------|--------------|
D|-----------|--------------|--------------|--------------|
A|-----------|--------------|--------------|--------------|
E|-----------|--------------|--------------|--------------|

  G              C                 G        C

E|20p19----20p19|20p19----20p19---|19-20-22|19h20p19----------|
B|------20------|------20-------20|--------|---------20----20-|
G|--------------|-----------------|--------|------------19----|
D|--------------|-----------------|--------|------------------|
A|--------------|-----------------|--------|------------------|
E|--------------|-----------------|--------|------------------|

  G       C        D7sus4         D7

E|-------|--------|--------------|-----15p14p12-|
B|-----20|20-19-17|15-15-17b18r17|15------------|
G|-------|--------|--------------|--------------|
D|-------|--------|--------------|--------------|
A|-------|--------|--------------|--------------|
E|-------|--------|--------------|--------------|

  G               C         G                 C

E|---------------|---------|-----------------|------12|
B|15-15p13p12----|---------|12h13p12----12-13|15------|
G|------------14-|12--12-14|---------14------|--------|
D|---------------|---------|-----------------|--------|
A|---------------|---------|-----------------|--------|
E|---------------|---------|-----------------|--------|

  G                      C        D7sus4         D7

E|12h14p12s10--12h14p12s|10------|--------------|--------|
B|----------------------|---12-12|12h13p12----12|--------|
G|----------------------|--------|---------14---|14-12-14|
D|----------------------|--------|--------------|--------|
A|----------------------|--------|--------------|--------|
E|----------------------|--------|--------------|--------|

  G                 C          G

E|-----------------|----------|--|
B|10b12-10b12r10-8-|----------|--|
G|-----------------|9b10r9-7--|--|
D|-----------------|---------7|9-|
A|-----------------|----------|--|
E|-----------------|----------|--|
Tap to rate this tab
# A B C D E F G H I J K L M N O P Q R S T U V W X Y Z