Wishbone Ash - Phoenix tab

            Intro Solo Live 2003

E|-----------------------------------------------------------------------------------------------|
B|------------------10v--8--10--12--10p8-----7--7--5-----5-----0--3--5--7--8--10--12--12p10--15v-|
G|-9v-----9-----9v------------------------9-----------7-----2------------------------------------|
D|----9------9-----------------------------------------------------------------------------------|
A|-----------------------------------------------------------------------------------------------|
E|-----------------------------------------------------------------------------------------------|


E|-----------------------------------------------------------------------------------------------|
B|-15--13--12--13--13v--13--12--13--12--10--8--10b10b12--10--8--10-------------------------------|
G|------------------------------------------------------------------9v--------7--9v--------7-----|
D|----------------------------------------------------------------------7--9---------7--9-----9v-|
A|-----------------------------------------------------------------------------------------------|
E|-----------------------------------------------------------------------------------------------|
Tap to rate this tab
 
# A B C D E F G H I J K L M N O P Q R S T U V W X Y Z