Song name
# A B C D E F G H I J K L M N O P Q R S T U V W X Y Z

Wishbone Ash - Jail Bait tab

----------------------------------------------------------------------------
                         Jail Bait by Wishbone Ash
----------------------------------------------------------------------------
tabbed by: Gregory Mocklin
email: gmocklin08@yahoo.com

tuning: normal

my stepdad actually showed this to me because i am just beginning to learn and
play guitar so i hope this is good

guitar 1:
e|-12-12-12-12-12-12------|
G|-12-12-12-12-12-12-14-12|
B|-------------------14-12|   repeat 4x
D|-------------------14-12|
A|-------------------12-10|
E|------------------------|

guitar 2:
                           e|------|
                           G|-14-12|
                           B|-14-12|    repeat 4x with guitar 1 in this 
                           D|-14-12|    order 
                           A|-12-10|
                           E|------|                         

guitar 1:
e|---------------------------------------|
G|---------------------------------------|
B|---------------------------------------|    mute sixth string with of hand
D|---------------------------------------|    and play this throughout
A|---------------------------------------|
E|-0-0--0-0--0-0--0-0--0-0--0-0--0-0--0-0|

guitar 2:
e|-------------------------------|
B|-------------------------------|
G|-------------------------------|    this is the rhythm
D|----2p0---------------2p0---0-2|
A|--------2p0---0h2---------2----|
E|0-0---------3-----0-0----------|

have fun!!
Tap to rate this tab
# A B C D E F G H I J K L M N O P Q R S T U V W X Y Z