Song name
# A B C D E F G H I J K L M N O P Q R S T U V W X Y Z

Wishbone Ash - Underground tab

Underground
Wishbone Ash, from "Number the Brave" album

tabbed by Almir Nametak
mokra@starmo.co.uk
June 2013


Main Riff and verses

E---------2----0----------------------------------------------------------------------------|
B---------2-----0---------------------------------------------------------------------------|
G---------2-1-2-------2-1-------------------------------------------------------------------|
D-----4-4-4-----------2-2-------------------------------------------------------------------|
A-----4-4-4-----------2-2-------------------------------------------------------------------|
E-----2-2-2------0-0-0-0-0------------------------------------------------------------------|



Chorus (Ooh, ooh, ooh ooh) over D A B


E------10------5-----7----------------------------------------------------------------------|
B-------10------5-----7---------------------------------------------------------------------|
G---------11-----6-----8--------------------------------------------------------------------|
D-------------------------------------------------------------------------------------------|
A-------------------------------------------------------------------------------------------|
E-------------------------------------------------------------------------------------------|


Lick 1

E--------9-7--7-5---------------------------------------------------------------------------|
B-----7/9---7b---7--------------------------------------------------------------------------|
G-------------------4-5-4-4-----------------------------------------------------------------|
D------------------------7-7-4--------------------------------------------------------------|
A-------------------------------------------------------------------------------------------|
E-------------------------------------------------------------------------------------------|



Solo

E--------9-7--7-5-----5-4-5-------------------------------------------------5-7-5-7-7/9-----|
B-----7/9---7b---7-5-7-----7-5-7----------------------------------5-7975-7-9-----------7----|
G-------------------------------6-4-6-------------------4-6764-6-7--------------------------|
D------------------------------------7-6764-6-4-6764-6-7------------------------------------|
A--------------------------------------------7----------------------------------------------|
E-------------------------------------------------------------------------------------------|



E-------45-45-45-45-4-5-4-4-----------------------------------------------------------------|
B------7--7--7--7--7-----7-5-7-5------------------------------------------------------------|
G-----------------------------6-64-4--------------------------------------------------------|
D---------------------------------7-4-7-6-7-4-6-4------2/4-2/4--2---------------------------|
A----------------------------------------------7-4-7-------------4--------------------------|
E---------------------------------------------------7---------------------------------------|



Last lick/outro..no harmonies

E-----------------------------------------9-9-9b-9--9---------------------------------------|
B------------9-10--12b-12-10-10-10-9-10-12--------12-10-9-10-12-10-----x2-------------------|
G------11-11-----11-------------------------------------------------------------------------|
D-------------------------------------------------------------------------------------------|
A-------------------------------------------------------------------------------------------|
E-------------------------------------------------------------------------------------------|


E-------9-9-9b-9--9-------------------------------------------------------------------------|
B---------------12-10-9-10-12-10-----x3-----------------------------------------------------|
G-------------------------------------------------------------------------------------------|
D-------------------------------------------------------------------------------------------|
A-------------------------------------------------------------------------------------------|
E-------------------------------------------------------------------------------------------|



E-------12b----------------------------------------------------------12b--------------------|
B----------10-9-10-12-10--2---10-9-10-12-10-x2---------10-9-10-12-10-----x3--10-9-10-12-10--|
G-------------------------------------------------------------------------------------------|
D-------------------------------------------------------------------------------------------|
A-------------------------------------------------------------------------------------------|
E-------------------------------------------------------------------------------------------|


Any suggestions are welcome



Verse:
Underground,
They want us to go underground.
Underground,
They want us to go underground.
You’ve got the right,
You’ve got the right to say what you think
You’ve got to fight,
’cause they’re leading us to the brink.

Verse:
Fireball,
There’s going to be a fireball.
Fireball,
There’s going to e a fireball.
Never a time,
Never a time like this before.
There won’t be a sign,
There was never a time like this before.

Chorus:
Ooh, ooh, ooh ooh (repeat four times)


Verse:
Underground,
They want us to go underground.
Underground,
They want us to go underground.
Throw down a line,
You’ve got the right to stay alive.
You’ve got to fight,
You’ve got to fight to survive.
Tap to rate this tab
# A B C D E F G H I J K L M N O P Q R S T U V W X Y Z