Song name
# A B C D E F G H I J K L M N O P Q R S T U V W X Y Z

Within Temptation - Shot In The Dark tab

Within Temptation Guitar tab Shot in the dark drop-CGCFAD tuning

Tabbed By Benjamin Vanreusel A.K.A Thecoverguitarist on youtube!!!!

D----------------------------------------------------|
A----------------------------------------------------|
F----------------------------------------------------|
C----------------------------------------------------|
G--8--8-8--8--8-8--8--8--8--8-8--8--8-8--8--8--------|
C----------------------------------------------------|
PM    . .     . .     .     . .     . .     .

D----------------------------------------------------|
A----------------------------------------------------|
F----------------------------------------------------|
C----------------------------------------------------|
G--9--9-9--9--9-9--9--9--9--9-9--9--9-9--9--9--------|
C----------------------------------------------------|
PM    . .     . .     .     . .     . .     .

D--------------------------------------------------------------|
A--------------------------------------------------------------|
F--------------------------------------------------------------|
C--------------------------------------------------------------|
G--11--11-11--11--11-11--11--11--11--11-11--11--11-11--11--11--|
C--------------------------------------------------------------|
PM     .. ..      .. ..      ..      .. ..      .. ..      ..

D----------------------------------------------------|
A----------------------------------------------------|
F----------------------------------------------------|
C----------------------------------------------------|
G--6--6-6--6--6-6--6--6--6--6-6--6--6-6--6--6--------|
C----------------------------------------------------|
PM    . .     . .     .     . .     . .     .


D--------------------------------|
A--------------------------------|
F--------------------------------|
C--8/----------------------------|
G--8/---SLIDE DOWN---------------|
C--8/----------------------------|

D------------------------------------------------------------------|
A------------------------------------------------------------------|
F------------------------------------------------------------------|
C---8-8-8-8-8-8-8-8-6-6-6-6-6-6-6-6-3-3-3-3-3-3-3-4-4-4-4-6-6-6-6--|
G---8-8-8-8-8-8-8-8-6-6-6-6-6-6-6-6-3-3-3-3-3-3-3-4-4-4-4-6-6-6-6--|
C---8-8-8-8-8-8-8-8-6-6-6-6-6-6-6-6-3-3-3-3-3-3-3-4-4-4-4-6-6-6-6--| x2


D------------------------------------------------------------------|
A------------------------------------------------------------------|
F------------------------------------------------------------------|
C---8~~~~~~~~~~~~~~~6~~~~~~~~~~~~~~~3~~~~~~~~~~~~~4~~~~~~~6~~~~~~~~|
G---8~~~~~~~~~~~~~~~6~~~~~~~~~~~~~~~3~~~~~~~~~~~~~4~~~~~~~6~~~~~~~~|
C---8~~~~~~~~~~~~~~~6~~~~~~~~~~~~~~~3~~~~~~~~~~~~~4~~~~~~~6~~~~~~~~| RHYTHEM

D------------------------------------------|
A-----6----------------------6-------------|
F--3-----3--5-6---1-------3-----3--5-6--3--|
C------------------------------------------|
G------------------------------------------|
C------------------------------------------|LEAD

D-----------------------------------------------------------------/
A------------------------------------------------------------------/
F------------------------------------------------------------------ /
C------------------------------------------------------------------  /
G------------------------------------------------------------------   /
C--8--8-8-8-8--8--8-8-8-8--8--8-8--8--8-8-8-8--8--8-8-8-8--8--8-8--    /  
PM    . . . .     . . . .     . .     . . . .     . . . .     . .       /
									 /
D------------------------------------------------------------------       /
A------------------------------------------------------------------        |
F------------------------------------------------------------------        |
C------------------------------------------------------------------        |
G------------------------------------------------------------------        |
C--4--4-4-4-4--4--4-4-4-4--4--4-4--4--4-4-4-4--4--4-4-4-4--4--4-4--        |
PM    . . . .     . . . .     . .     . . . .     . . . .     . .          |
                               						X2 |
D------------------------------------------------------------------        |
A------------------------------------------------------------------        |
F------------------------------------------------------------------	   |
C------------------------------------------------------------------        |
G------------------------------------------------------------------        |
C--6--6-6-6-6--6--6-6-6-6--6--6-6--6--6-6-6-6--6--6-6-6-6--6--6-6--        |
PM    . . . .     . . . .     . .     . . . .     . . . .     . .         \
  									 \
D------------------------------------------------------------------     \
A------------------------------------------------------------------    \
F------------------------------------------------------------------   \
C------------------------------------------------------------------  \
G------------------------------------------------------------------ \
C--1--1-1-1-1--1--1-1-1-1--1--1-1-----1-1-1-1--1--1-1-1-1--1--1-1--\
PM    . . . .     . . . .     . .     . . . .     . . . .     . . 



D------------------------------------------------------------------|
A------------------------------------------------------------------|
F------------------------------------------------------------------|
C------------------------------------------------------------------|
G------------------------------------------------------------------|
C--4--4-4-4-4--4--4-4-4-4--4--4-4--4--4-4-4-4--4--4-4-4-4--4--4-4--|
PM    . . . .     . . . .     . .     . . . .     . . . .     . .

D------------------------------------------------------------------|
A------------------------------------------------------------------|
F------------------------------------------------------------------|
C------------------------------------------------------------------|
G------------------------------------------------------------------|
C--8--8-8-8-8--8--8-8-8-8--8--8-8--8--8-8-8-8--8--8-8-8-8--8--8-8--|
PM    . . . .     . . . .     . .     . . . .     . . . .     . .

D----------------------------------------|
A----------------------------------------|
F----------------------------------------|
C----------------------------------3~~~~-|
G----------------------------------3~~~~-|
C--4--4-4-4-4--4--4-4-4-4--4--4-4--3~~~~-|
PM    . . . .     . . . .     . .

D------------------------------------------------------------------|
A------------------------------------------------------------------|
F------------------------------------------------------------------|
C---8-8-8-8-8-8-8-8-6-6-6-6-6-6-6-6-3-3-3-3-3-3-3-4-4-4-4-6-6-6-6--|
G---8-8-8-8-8-8-8-8-6-6-6-6-6-6-6-6-3-3-3-3-3-3-3-4-4-4-4-6-6-6-6--|
C---8-8-8-8-8-8-8-8-6-6-6-6-6-6-6-6-3-3-3-3-3-3-3-4-4-4-4-6-6-6-6--| x2

D------------------------------------------------------------------|
A------------------------------------------------------------------|
F------------------------------------------------------------------|
C---8-8-8-8-8-8-8-8-6-6-6-6-6-6-6-6-3-3-3-3-3-3-3-4-4-4-4-6-6-6-6--|
G---8-8-8-8-8-8-8-8-6-6-6-6-6-6-6-6-3-3-3-3-3-3-3-4-4-4-4-6-6-6-6--|
C---8-8-8-8-8-8-8-8-6-6-6-6-6-6-6-6-3-3-3-3-3-3-3-4-4-4-4-6-6-6-6--|
D------------------------------------------------------------------|

A------------------------------------------------------------------------|
F------------------------------------------------------------------------|
C---8-8-8-8-8-8-8-8-6-6-6-6-6-6-6-6-3-3-3-3-3-3-3-4-4-4-4-6-6-6-6--8~~~~-|
G---8-8-8-8-8-8-8-8-6-6-6-6-6-6-6-6-3-3-3-3-3-3-3-4-4-4-4-6-6-6-6--8~~~~-|
C---8-8-8-8-8-8-8-8-6-6-6-6-6-6-6-6-3-3-3-3-3-3-3-4-4-4-4-6-6-6-6--8~~~~-|
RHYTHEM

D------------------------------------------|
A-----6----------------------6-------------|
F--3-----3--5-6---1-------3-----3--5-6--3--|
C------------------------------------------|
G------------------------------------------|
C------------------------------------------|x2 LEAD

D--------------------------------------------------|
A--------------------------------------------------|
F--------------------------------------------------|
C---4~~~~~~~~~~~~~~~6~~~~~~~~~~~~~~~8~~~~~~~~~~~~~-|
G---4~~~~~~~~~~~~~~~6~~~~~~~~~~~~~~~8~~~~~~~~~~~~~-|
C---4~~~~~~~~~~~~~~~6~~~~~~~~~~~~~~~8~~~~~~~~~~~~~-|x2

D---------------------------------------------------------------------------|
A---------------------------------------------------------------------------|
F---------------------------------------------------------------------------|
C---8-8-8-8-8-8-8-8-11-11-11-11-11-11-11-11-6-6-6-6-6-6-6-6-3-3-3-3-3-3-3-3-|
G---8-8-8-8-8-8-8-8-11-11-11-11-11-11-11-11-6-6-6-6-6-6-6-6-3-3-3-3-3-3-3-3-|
C---8-8-8-8-8-8-8-8-11-11-11-11-11-11-11-11-6-6-6-6-6-6-6-6-3-3-3-3-3-3-3-3-|
										RHYTHEM
D----------------------------------------------------------|
A----------------------------------------------------------|
F----------------------------------------------------------|
C---8-8-8-8-8-8-8-8-4-4-4-4-4-4-4-4-6-6-6-6-6-6-6-6--3~~~~-|
G---8-8-8-8-8-8-8-8-4-4-4-4-4-4-4-4-6-6-6-6-6-6-6-6--3~~~~-|
C---8-8-8-8-8-8-8-8-4-4-4-4-4-4-4-4-6-6-6-6-6-6-6-6--3~~~~-|


D------------------------------------------------------------------|
A------------------------------------------------------------------|
F------------------------------------------------------------------|
C---8-8-8-8-8-8-8-8-6-6-6-6-6-6-6-6-3-3-3-3-3-3-3-4-4-4-4-6-6-6-6--|
G---8-8-8-8-8-8-8-8-6-6-6-6-6-6-6-6-3-3-3-3-3-3-3-4-4-4-4-6-6-6-6--|
C---8-8-8-8-8-8-8-8-6-6-6-6-6-6-6-6-3-3-3-3-3-3-3-4-4-4-4-6-6-6-6--| x4

D------------------------------------------------------------------|
A------------------------------------------------------------------|
F------------------------------------------------------------------|
C---8-8-8-8-8-8-8-8-6-6-6-6-6-6-6-6-3-3-3-3-3-3-3-4-4-4-4-6-6-6-6--|
G---8-8-8-8-8-8-8-8-6-6-6-6-6-6-6-6-3-3-3-3-3-3-3-4-4-4-4-6-6-6-6--|
C---8-8-8-8-8-8-8-8-6-6-6-6-6-6-6-6-3-3-3-3-3-3-3-4-4-4-4-6-6-6-6--|RHYTHEM

D------------------------------------------|
A-----6----------------------6-------------|
F--3-----3--5-6---1-------3-----3--5-6--3--|
C------------------------------------------|
G------------------------------------------|
C------------------------------------------|x2 LEAD

D--------------------------------------------------------------------|
A--------------------------------------------------------------------|
F--------------------------------------------------------------------|
C---8-8-8-8-8-8-8-8-6-6-6-6-6-6-6-6-3-3-3-3-3-3-3-4-4-4-4-6----8~~~~-|
G---8-8-8-8-8-8-8-8-6-6-6-6-6-6-6-6-3-3-3-3-3-3-3-4-4-4-4-6----8~~~~-|
C---8-8-8-8-8-8-8-8-6-6-6-6-6-6-6-6-3-3-3-3-3-3-3-4-4-4-4-6----8~~~~-|

THE END ^^
Tap to rate this tab
 
# A B C D E F G H I J K L M N O P Q R S T U V W X Y Z