Song name
# A B C D E F G H I J K L M N O P Q R S T U V W X Y Z

Within Temptation - Stand My Ground tab

tuning: standard 7-string (if you use a 6-string guitar... hard...
                                      try to drop down 2.5 steps)
  (could have been done by ignoring the 7th string but with...
                                         ...slight modifications)
intro
e[--------------------------------------------------------------]
b[--------------------------------------------------------------]
G[--------------------------------------------------------------]
D[--------------------------------------------------------------]
A[--------3---3-------------3/5------------3---3-------------6--]
E[--3-3-3-3-3-3---3-5/6-----1/3------3-3-3-3-3-3---3-5/6-----4--]
B[--1-1-1-1-1-1-1-1-3/4-1-1-----1-1--1-1-1-1-1-1-1-1-3/4-1-1----]
    . . .   .   . .     . .     . .  . . .   . . . .     . .

e[----------------------------------------------------------------]
b[----------------------------------------------------------------]
G[----------------------------------------------------------------]
D[----------------------------------------------------------------]
A[--------3---3-------------3/5------------3---3-------------3----]
E[--3-3-3-3-3-3---3-5/6-----1/3------3-3-3-3-3-3---3-5/6-----1-6--]
B[--1-1-1-1-1-1-1-1-3/4-1-1-----1-1--1-1-1-1-1-1-1-1-3/4-1-1---4--]
    . . .   .   . .     . .     . .  . . .   . . . .     . .

(2x)

end with
e[---]
b[---]
G[---]
D[---]
A[---]
E[-3-]
b[-1-]

bridge
e[----------------------------------------------------------------]
b[----------------------------------------------------------------]
G[----------------------------------------------------------------]
D[----------------------------------------------------------------]
A[--------3---3-------------3/5------------3---3-------------6-5--]
E[--3-3-3-3-3-3---3-5/6-----1/3------3-3-3-3-3-3---3-5/6-----4-3--]
B[--1-1-1-1-1-1-1-1-3/4-1-1-----1-1--1-1-1-1-1-1-1-1-3/4-1-1------]
    . . .   .   . .     . .     . .  . . .   . . . .     . .

chorus
e[----------------------------------------------------------------]
b[----------------------------------------------------------------]
G[----------------------------------------------------------------]
d[----------3-----------------3-----------------------------------]
A[--3-------1---6--5--3-------1---6--5--3-------------------------]
E[--1---4-------4--3--1---4-------4--3--1-------------------------]
B[------2-----------------2---------------------------------------]

2nd verse
e[--------------------------------------------------------------------]
b[--------------------------------------------------------------------]
G[--------------------------------------------------------------------]
D[--------------------------------------------------------------------]
A[---------------------------------6--6---6--6-6---3--3---3--3-3------]
E[-3--3---3--3-3---3--3---3--3-3---4--4---4--4-4---1--1---1--1-1------]
B[-1--1---1--1-1---1--1---1--1-1--------------------------------------]


e[-----------------------------------------------------------------]
b[-----------------------------------------------------------------]
G[-----------------------------------------------------------------]
D[-----------------------------------------------------------------]
A[-1S3---------1S3---------1S3-----1S3---------1S3---------1S3-----]
E[-----3-3-3-3-----3-3-3-3-----3-3-----3-3-3-3-----3-3-3-3-----3-3-]
B[-----1-1-1-1-----1-1-1-1-----1-1-----1-1-1-1-----1-1-1-1-----1-1-]


e[---------------------------------------------------------]
b[---------------------------------------------------------]
G[---------------------------------------------------------]
D[---------------------------------------------------------]
A[-----6-6-6-6-----6-6-6-6---------3-3-3-3-----3-3-3-3-----]
E[-3S4-4-4-4-4-3S4-4-4-4-4-3S4-0S1-1-1-1-1-0S1-1-1-1-1-0S1-]
B[---------------------------------------------------------]


bridge
e[----------------------------------------------------------------]
b[----------------------------------------------------------------]
G[----------------------------------------------------------------]
D[----------------------------------------------------------------]
A[--------3---3-------------3/5------------3---3-------------6-5--]
E[--3-3-3-3-3-3---3-5/6-----1/3------3-3-3-3-3-3---3-5/6-----4-3--]
B[--1-1-1-1-1-1-1-1-3/4-1-1-----1-1--1-1-1-1-1-1-1-1-3/4-1-1------]
    . . .   .   . .     . .     . .  . . .   . . . .     . .

chorus
e[----------------------------------------------------------------]
b[----------------------------------------------------------------]
G[----------------------------------------------------------------]
d[----------3-----------------3-----------------------------------]
A[--3-------1---6--5--3-------1---6--5--3-------------------------]
E[--1---4-------4--3--1---4-------4--3--1-------------------------]
B[------2-----------------2---------------------------------------]
Tap to rate this tab
# A B C D E F G H I J K L M N O P Q R S T U V W X Y Z