Guitaretab - guitar tabs
Song name
# A B C D E F G H I J K L M N O P Q R S T U V W X Y Z

Wolf Mail - Solid Ground tab

----------------------------------------------------------------------------
			     Solid ground  Wolf Mail
----------------------------------------------------------------------------
Solid ground Tab by Wolf Mail, www.wolf-mail.Com
Solid ground  Wolf Mail(Solid ground)
Tabbed by Eric DLP
Tune 1/2 step down

/ - Slide up
\ - Slide down
t - tap
[ Tab from: http://www.guitaretab.com/w/wolf-mail/143897.html ]
Intro
e|---------------------------------------------------------------------------|
B|--------------7----5---8--7--8---------------------------------------------|
G|--------------7----5---7--7--7---------------------------------------------|
D|--------------7----5---6--7--7---------------------------------------------|
A|-7---5---7-5--6----4---7---------------------------------------------------|
E|---5---7------7----5---0-------0-------------------------------------------|

Verses & chorus
e|---------------------------------------------------------------------------|
B|------------------------8--------------------------------------------------|
G|---9-----8-\--7---------7--------------------------------------------------|
D|---8-----7-\--6---------6--------------------------------------------------|
A|---9-----8-\--7---------7--------------------------------------------------|
E|--------------------0------------------------------------------------------|
Related for Solid Ground tab