Song name
# A B C D E F G H I J K L M N O P Q R S T U V W X Y Z

Wolfgang Amadeus Mozart - Eine Kleine Nachtmusik tab

Tabbed this by ear - hope you like it, review, rate but not if you're a
 dick. This is kind of a rocky take on this awesome classical piece so 
don't expect it to be identical. You have corrections? feel free to give 
them. Might have a few mistakes as I tabbed this without a guitar to hand 
but I'm pretty certain aint any. 


e|-----------------------|
B|-----------------------|
G|-----------------------|
D|-------------------2-5-|
A|-3-----3----3----5-----|
E|----3-----3---3--------|

e|-----------------------|
B|-----------------------|
G|-----------------------|
D|-3-----3----3----------|
A|----5-----5---5--3-5---|
E|---------------------3-|

e|-----------------------|
B|-----------------------|
G|-5-5--9-7-5-5/4-4------|
D|-5-5--9-7-5-5/4-4------|
A|-3-3--7-5-3-3/2-2------|
E|-----------------------|

e|-----------------------|
B|-----------------------|
G|-7-9-7-5/4-4-----------|
D|-7-9-7-5/4-4-----------|
A|-5-7-5-3/2-2-----------|
E|-----------------------|

e|-----------------------|
B|-----------------------|
G|-7-9-7-9----10---------|
D|-7-9-7-9----8----------|
A|-5-7-5-7----8----------|
E|-----------------------|
Tap to rate this tab
 
# A B C D E F G H I J K L M N O P Q R S T U V W X Y Z